Oops, an error
Loading. Please wait.

Gardeliando Bass Tab

62 views 3 this week
no commentswrite comment
1 2 3 4 5
3 more votes to show rating
add to favorites
launch autoscroll
font size
0
reset
guitar tuner
×
Best way to learn
"Gardeliando"
Autoscroll
slow
fast
+/-
esc
set tempo
stop
wenas ak les dejo esta tablatura calfiquen esta tmb califica
 corazon bailando al viento
tablatura de roberto gomez bolaños y tablaturas para bajo de una vela

el tema es todo asi...

G|-----------------------------------------|
D|-----------------------------------------|X
A|-----------------------------------------|2
E|-0-0-0-0-0-0-0-0-0-2-4-4-4-4-4-4-4-4-4-2-|


y cuando empieza la part "si no te gusta lo q ves..."

ase asi


    si no te gusta lo q ves...
G|-4--4--4--4--4--4--4--4--7--7--7--7--6--7--6---7--6-|
D|-4--4--4--4--4--4--4--4--7--7--7--7--6--7--6---7--6-|
A|-2--2--2--2--2--2--2--2--5--5--5--5--4--5--4---5--4-|
E|----------------------------------------------------|


  caretas caretas ca-re-tas  ca-re-tas careetaaaaaas
G|----------------------------------------------|
D|-3-4-5---6-7-8---9-10-11---12-13--14-15-16-17-|
A|-3-4-5---6-7-8---9-10-11---12-13--14-15-16-17-|
E|-1-2-3---4-5-6---7--8--9---10-11--12-13-14-15-|
Suggest correction
Give kudos to tab author, rate the tab!
1 2 3 4 5
comments
print report bad tab
guest
You may want to rate the tab now too:
select rating
Wanna post a correction for this tab? Suggest correction