Oops, an error
Loading. Please wait.

Gardeliando Tab

version 2
version 2

Whole song

73 views 1 this week
no commentswrite comment
1 2 3 4 5
3 more votes to show rating
add to favorites
launch autoscroll
font size
0
reset
how to read this tab
guitar tuner
Autoscroll
slow
fast
+/-
esc
set tempo
stop
Hola a todos aca les dejo el tema completito, esta perfecto.
Cualquier duda o consulta e23g11t89@
Edgar.

Intro:
e|-------------------------------------------------|
B|-------------------------------------------------|
G|-------------------------------------------------|X2
D|-------------------------------------------------|
A|-------------------------------------------------|
E|-0-0-0-0-0-0-0-0-0-0-2-4--4-4-4-4-4-4-4-4--4-2-0-|

e|-0-0-------0----------------------------------0-----------------------|
B|-0---0-------0--4h5-4-------------4h5-4--------0----------------------|
G|-1-----0h1------------6-4-3-------------6-4-3---0h1-------------------|
D|-2--------------------------6-5-6-----------------------4-6-4----4h5-4|
A|-2--------------------------------------------------2/7-------7-6-----|
E|-0--------------------------------------------------------------------|

e|---------------------------------------------------------------------|
B|---------------------------------------------------------------------|
G|---------------------------------------------------------------------|
D|----4-6-4-----------4p6-666-4-------------4-6-4----------------------|
A|-/7-------6/7-6-6-------------7-6-7----/7-------7-6-6-6-6-6p7-6-5-6--|
E|---------------------------------------------------------------------|

e|-----------2/4-6-6/7-6-4-2/4---7-6-4-----------------7-6-4-------------|
B|-4h5-4-3-4---------------------------7-5-4-2-5/7-5---------7-5-4-2-2/4-|
G|-----------------------------------------------------------------------|
D|-----------------------------------------------------------------------|
A|-----------------------------------------------------------------------|
E|-----------------------------------------------------------------------|

e|-------------------|
B|-4-4h5-4-----------|
G|---------6-4-3-4-3-|
D|-------------------|
A|-------------------|
E|-------------------|

MI             G#m                F#
Solo la musica esta en mi corazón
MI             G#m                F#
Solo la musica esta a mi alrededor
MI             G#m                F#
Solo la musica puede darme amor
     Riff 1           Riff 2
e|-------------|------------------|
B|-4h5-4-3-3-4-|--4h5-4-3-3-4-3-4-|
G|-------------|------------------|
D|-------------|------------------|
A|-------------|------------------|
E|-------------|------------------|

Se estan haciendo un faso a la vuelta de la esquina  Riff1
Se estan tomando un vino o corriendo alguna mina     Riff2
Si no fuera asi que ciudad tan aburrida

De Tablada a Lanus
De Mataderos hasta Flores
De Barracas a la Boca
De Chacarita a la Paternal

La sonrisa de Gardel,
ilumina la ciudad
la ciudad que alguna vez
era totalmente de EL

ahora es tuya la ciudad
ahora es tuya y nada mas

Estribillo:

B5                       D5    C#5 D5 C#5 D5
Si no te gusta lo que ves
Andate a vivir a Nueva York (Yankis putos)
Si no te gusta como soy
Andate a la puta q te pario

F F# G G# A A# B5 C5 C# D D# E SUBE ARRASTRANDO HASTA F
Caretas caretas caretas caretas caretas caretassssssssss!!!!!!

E G#m X2

Solo:

e|-----------------------------------------|  |---------------|
B|-----------------------------------------|  |---------------|
G|-----------------4-4-4-3-----------------|X2|---------------|
D|-------------------------6p4-------------|  |---------------|
A|---4-6-7-7-7-6-7-------------6-6-6/7-6--6|  |-6h7-6-4-------|
E|-7---------------------------------------|  |---------7-6-7-|

e|-0-0-------0----------------------------------0----------------|
B|-0---0-------0--4h5-4-------------4h5-4--------0----------3h4-4|
G|-1-----0h1------------6-4-3-------------6-4-3---0h1-1-0h1------|
D|-2--------------------------6-5-6------------------------------|
A|-2-------------------------------------------------------------|
E|-0-------------------------------------------------------------|
xxxxxxxxxxxxxxxxxxxxxxxxxxxxxxxxxxxxxxxxxxxxxxxxxxxxxxxxxxxxxxxxxxxxxxxxxx
     E*       G#m*
e|-4--4---|-4--4-----4---|
B|-5----5-|-4----4-----4-|
G|-4------|-4------4-----|
D|--------|--------------|
A|--------|--------------|
E|--------|--------------|

E*                            G#m*
Se estan haciendo un faso a la vuelta de la esquina
Se estan tomando un vino o corriendo alguna mina
Si no fuera asi que ciudad tan aburrida
E                 G#m    F#
De Tablada a Lanus
De Mataderos hasta Flores
De Barracas a la Boca
De Chacarita a la Paternal

La sonrisa de Gardel,
ilumina la ciudad
la ciudad que alguna vez
era totalmente de EL

AHORA ES NUESTRAS LA CIUDAD!!!
ahora es nuestra y nada mas

Estribillo:

B5                       D5    C#5 D5 C#5 D5
Si no te gusta lo que ves
Andate a vivir a Nueva York (Yankis Imperialistas)
Si no te gusta como soy
Andate a la puta q te pario

F F# G G# A A# B5 C5 C# D D# E BAJA ARRASTRANDO HASTA F
Caretas caretas caretas caretas caretas caretassssssssss!!!!!!

FIN

Este tema se lo dedico a todos los putos q creen en el dinero,
ese dios artificial.

Korneta vive, yo se que viveee!!
Suggest correction
Give kudos to tab author, rate the tab!
1 2 3 4 5
comments
print report bad tab
guest
Wanna post a correction for this tab? Suggest correction