Oops, an error
Loading. Please wait.

Hay Que Enterrarlos Vivos Tab

13 views 1 this week
no commentswrite comment
1 2 3 4 5
3 more votes to show rating
add to favorites
launch autoscroll
font size
0
reset
how to read this tab
guitar tuner
Autoscroll
slow
fast
+/-
esc
set tempo
stop
Help us to improve Ultimate-Guitar.com Take our survey!
×
Punteo no se escucha bien porque tiene un efecto raro....


1|----------------------------------------------------------------------------------------------|
2|----------------------------------------------------------------------------------------------|
3|----------------------------------------------------------------------------------------------|
4|----------------------------------------------------------------------------------------------|
5|-0h2-2-2-2---4h5-5-5-5---5-4-2--4-4----------------0-2-2---4h5-5-5---5-4-2--4-4---------------|
6|-------------------------------------5-4-2-2---0h2-------------------------------5-4-2-2------|

1|------------------------------------------------------------------------------------|X2
2|------------------------------------------------------------------------------------|
3|------------------------------------------------------------------------------------|
4|------------------------------------------------------------------------------------|
5|------0-2-2-0---0-2------0-2-2-0---0-2-----------7-9-7-9-7----------7-9-7-9-7-------|
6|-0h2----------2------0h2---------2------0h2-0h2-------------0h2-0h2-----------------|

Pueden hacer los versos con el punteo o sino asi!

Bm
voces, voces
F#m
en mi cabeza estan
Bm
voces, voces
F#m
en mi cabeza estan
Bm
adonde esta mi amigo
F#m
adonde esta mi hermano
Bm
adonde esta mi hijo
F#m
adonde esta mi padre


Bm
aqui no estan
aqui no estan
F#m
en esta comisaria no
Bm
aqui no ha venido
aqui no ha estado
F#m
en esta comisaria no
Bm
aqui no ha venido
aqui no ha estado
F#m
no no no no!!!


1|----------------------------------------------------------------------------------------------|
2|----------------------------------------------------------------------------------------------|
3|----------------------------------------------------------------------------------------------|
4|----------------------------------------------------------------------------------------------|
5|-0h2-2-2-2---4h5-5-5-5---5-4-2--4-4----------------0-2-2---4h5-5-5---5-4-2--4-4---------------|
6|-------------------------------------5-4-2-2---0h2-------------------------------5-4-2-2------|

voces, voces
en mi cabeza estan
voces, voces
en mi cabeza estan
adonde esta mi hija
adonde esta mi hermana
adonde esta mi madre
adonde esta mi amiga


aqui no estan
aqui no estan
en esta comisaria no
aqui no ha venido
aqui no ha estado
en esta comisaria no
aqui no ha venido
aqui no ha estado
no no no no!!!

E

E (dejalo sonar largo, rasguerlo solo de arriba a abajo)
son todos homosexuales
drogadictos
comunistas
negros de mierda
hay que reventarlos a todos
hay que enterrarlos vivos
y hacerlos desaparecer
¿me entienden soldados?
SI MI general


Rosario Es el Rocanroll!!!!!
saluditos a mi noviecita y a mi amiguitossss
Korneta not Dead.......
Suggest correction
Give kudos to tab author, rate the tab!
1 2 3 4 5
comments
print report bad tab
guest
You may want to rate the tab now too:
select rating
Wanna post a correction for this tab? Suggest correction