Oops, an error
Loading. Please wait.

Introduccion Gardeliana Tab

18 views 1 this week
no commentswrite comment
1 2 3 4 5
3 more votes to show rating
add to favorites
×
Save as Personal and add changes to this tab that will be seen only by you. Learn more ›
×
You can save this tab as Personal to edit and correct it or add notes. All changes will be seen only by you. Learn more »
save as personal
new!
launch autoscroll
font size
0
reset
how to read this tab
guitar tuner
Autoscroll
slow
fast
+/-
esc
set tempo
stop
1|-17-17-14-14-----------------------14------------------------------------14--17-14------------|
2|---------------17-17-14---17-14-17----17-14-12------------17-14--------------------17-14-12---|
3|-------------------------------------------------14-16-18-------14-16-18--------------------11|
4|----------------------------------------------------------------------------------------------|
5|----------------------------------------------------------------------------------------------|
6|----------------------------------------------------------------------------------------------|


1|-----------------------|---------------------|----------------------|-------------------------|
2|-----------------------|---------------------|----------------------|-------------------------|
3|-----------------------|---------------------|----------------------|-------------------------|
4|-----------------------|---------------------|----------------------|-------------------------|
5|--------0h2p0-------2--|--------0h2p0------2-|-------0h2p0--------2-|-0h2-2-2-2p0-------------|
6|--0-2-3-------3-2-3----|--0-2-3--------3-2---|-0-2-3--------3-2-3---|-------------2-3-0-------|


1|-----------------------|-------------------------|----------------------------------|---------|
2|-----------------------|-------------------------|----------------------------------|---------|
3|-----------------------|-------------------------|----------------------------------|---------|
4|-----------------------|--------------0----------|-----0----------------------------|---------|
5|--------0h2p0-------2--|-2h3--3-3-3p2---2--------|-------3-2-3-2---0-2-2h3p2--------|---------|
6|--0-2-3-------3-2-3----|------------------3-2-0--|-3-2-----------3------------3-2-0-|--3-2-0--|


1|--------------|-----------------|------------------------------------|------------------------|
2|--------------|-----------------|------------------------------------|------------------------|
3|--------------|-----------------|------------------------------------|------------------------|
4|--------------|-----------------|-0----------------------------------|-0----------------------|
5|--------------|-----------------|----3-2-3-2---0h2------0h2p0------2-|---3-2-3-2---0-2-2h3p2--|
6|-3-2-0--3-2-0-|-2-3-2-0-2-3-2-0-|------------3------2-3--------2-3---|-----------3------------|


1|------------|------------------------------------|--------------------------------------------|
2|------------|------------------------------------|--------------------------------------------|
3|------------|------------------------------------|--------------------------------------------|
4|------------|-0----------------------------------|-0------------------------------------------|
5|------------|----3-2-3-2---0h2------0h2p0------2-|---3-2-3-2---0-2-2h3p2----------------------|
6|-3-2-0--3-2-|------------3------2-3--------2-3---|-----------3------------3-2-0---------------|


1|-----------------------|---------------------|----------------------|-------------------------|
2|-----------------------|---------------------|----------------------|-------------------------|
3|-----------------------|---------------------|----------------------|-------------------------|
4|-----------------------|---------------------|----------------------|-------------------------|
5|--------0h2p0-------2--|--------0h2p0------2-|-------0h2p0--------2-|-0h2-2-2-2p0-------------|
6|--0-2-3-------3-2-3----|--0-2-3--------3-2---|-0-2-3--------3-2-3---|-------------2-3-0-------|


1|-----------------------|-------------------------|----------------------------------|
2|-----------------------|-------------------------|----------------------------------|
3|-----------------------|-------------------------|----------------------------------|
4|-----------------------|--------------0----------|-----0----------------------------|
5|--------0h2p0-------2--|-2h3--3-3-3p2---2--------|-------3-2-3-2---0-2-2h3p2--------|
6|--0-2-3-------3-2-3----|------------------3-2-0--|-3-2-----------3------------3-2-0-|


Gardelitos por favor Vuelvan a Rosario!!
Suggest correction
Give kudos to tab author, rate the tab!
1 2 3 4 5
comments
print report bad tab
guest
Wanna post a correction for this tab? Suggest correction