Oops, an error
Loading. Please wait.

La Mamita Tab

22 views 1 this week
no commentswrite comment
1 2 3 4 5
3 more votes to show rating
add to favorites
launch autoscroll
font size
0
reset
how to read this tab
guitar tuner
×
Best way to learn
"La Mamita"
Autoscroll
slow
fast
+/-
esc
set tempo
stop
Cual quier duda o consulta e23g11t89@

Edgar.

Nota:
º: toca muchas veces la misma nota.
/:arrastra hasta la nota que dice

e|----------------------------------------------------|
B|-------------7--------------------------------------|
G|-6-7-9-7-6-----9-7-9--9-7-6---------------9---------|
D|-----------9----------------7--7-9-7-9/11---11-10-9-|
A|----------------------------------------------------|
E|----------------------------------------------------|

e|-----------------------------|
B|-7---------------------------|
G|---9-7-9--9-7-6--------------|
D|----------------7--6/7-7-6---|
A|---------------------------9-|
E|-----------------------------|

e|------------------------------------------|
B|-------------7----------------------------|
G|-6-7-9-7-6-----9-7-9--9-7-6---------------|
D|-----------9----------------7-7-------6-7-|
A|--------------------------------7-10------|
E|------------------------------------------|

e|-----------------------------------------------|    Pero la ultima parte
B|-----------------------------------------------|    termina en vez de
G|---------------------------------7-7-----------| X2 10-9-10-7 hace
D|------6-7-10-10-9-7-9-6--6-6-7-9-----10-9-10-7-|    10-9-7.
A|-7-10------------------------------------------|
E|-----------------------------------------------|

e|---------------------------------------------|    Pero en la ultima
B|---------------------------------------------|    termina en vez de
G|----------9-9-7---7---------7-10-10-9-7-9----| X2 9-7-9
D|-7-7-9-10-------10--9-9-9-10--------------10-|    -----10  hace
A|---------------------------------------------|    9-7-
E|---------------------------------------------|    ----10

e|---------------------------------------------------------|
B|---------------------------------------------------------|
G|-9/10-9-7-9/10--10/12-10-9-10/12-------------------------|
D|---------------------------------9/10º-9-10-10/12-10-9-7-|
A|---------------------------------------------------------|
E|---------------------------------------------------------|

e|-------------------------------------8----7----5----3-|
B|------------------------------------------------------|
G|-9/10-9-7-9/10--10/12-10-9-10/12----------------------|
D|---------------------------------/10----9----7----5---|
A|------------------------------------------------------|
E|------------------------------------------------------|

e|---------------------------------------------------------|
B|---------------------------------------------------------|
G|-9/10-9-7-9/10--10/12-10-9-10/12-------------------------|
D|---------------------------------9/10º-9-10-10/12-10-9-7-|
A|---------------------------------------------------------|
E|---------------------------------------------------------|

e|----------------------------------------------|
B|----------------------------------------------|
G|-9/10-9-7-9/10--10/12-10-9-10/12--------------|
D|---------------------------------7-7------6-7-|
A|-------------------------------------7-10-----|
E|----------------------------------------------|


e|----------------------------------------|
B|-------------7--------------------------|
G|-6-7-9-7-6-----9-7-9--9-7-6-------------|
D|-----------9----------------7-6/7-7-6---|
A|--------------------------------------9-|
E|----------------------------------------|

e|----------------------------------------------------|
B|-------------7--------------------------------------|
G|-6-7-9-7-6-----9-7-9--9-7-6---------------9---------|
D|-----------9----------------7--7-9-7-9/11---11-10-9-|
A|----------------------------------------------------|
E|----------------------------------------------------|

e|-----------------------------|
B|-7---------------------------|
G|---9-7-9--9-7-6--------------|
D|----------------7--6/7-7-6---|
A|---------------------------9-|
E|-----------------------------|

e|------------------------------------------|
B|-------------7----------------------------|
G|-6-7-9-7-6-----9-7-9--9-7-6---------------|
D|-----------9----------------7-7-------6-7-|
A|--------------------------------7-10------|
E|------------------------------------------|

Korneta not dead!
Suggest correction
Give kudos to tab author, rate the tab!
1 2 3 4 5
comments
print report bad tab
guest
You may want to rate the tab now too:
select rating
Wanna post a correction for this tab? Suggest correction