Oops, an error
Loading. Please wait.

Libertad Condicionada Tab

24 views 1 this week
no commentswrite comment
1 2 3 4 5
3 more votes to show rating
add to favorites
launch autoscroll
font size
0
reset
how to read this tab
guitar tuner
×
Best way to learn
"Libertad Condicionada"
Autoscroll
slow
fast
+/-
esc
set tempo
stop
Intro

E  ----------------------------------------------------------
B ----------------------------------------------------------
G ----------------------------------------------------------
D --5-7--5-7--5-5-7-5-7--5-5-7-5-7--5-5-7-5-4/5---
A --3-3--3-3--3-3-3-3-3--3-3-3-3-3--3-3-3-3-2/3---
E ----------------------------------------------------------


Riff 1
E  --------------------------
B --14-14-12-----------------
G -----------14-15-----------
D ---------------------------
A ---------------------------
E ---------------------------

Riff 2
e --------------------------
B --11-11-9-10--------------
G --------------------------
D --------------------------
A --------------------------
E --------------------------

Riff 3
e ----------------------------------
B --11-11-11-11-11-11-9-------------
G ----------------------------------
D ----------------------------------
A ----------------------------------
E ----------------------------------

Riff 4
e --------------------------
B --17b-17b-15-16-----------
G --------------------------
D --------------------------
A --------------------------
E --------------------------


Intro (x2)

C5
La policia te espera (Riff1)
C5
en una esquina cualquiera (Riff2)
C5
no podes ir a bailar (Riff1)
C5
no podes ir ni a cagar. (Riff3)
C5
Siempre estan vigilando (Riff4)
C5
siempre estan sospechando (Riff2)
C5
y los vecinos que miran (Riff1)
C5
y la patota en la esquina...


Am
No, no lo entiendes, no.
F              G               Intro
Es mi manera de ser feliz.
Am
No, no lo entiendes, no.
F              G                Intro
Es mi manera de ser feliz.


(Sigue igual a la intro)
Nena estas aburrida
mirando television
los psicofarmacos vuelan
y la farmacia cerro,
y en los segundos que vienen
tu paranoia reino.

Am
No, no lo entiendes, no.
F              G               Intro
Es mi manera de ser feliz.
Am
No, no lo entiendes, no.
F              G                Intro
Es mi manera de ser feliz.

Em
No loco no te mates,
F
esa no es la forma
G
yo solo creo en el amor
Intro
nada mas que en el amor.

Em
No loca no lo intentes,
F
si no me ves no existo,
G
es solo el viento el que paso.
Intro
Dame dame dame tu amor

Solo
F-C( 2 veces)
Am-F-G
C-C6

E
No, loco no te mates,
F
esa no es la forma
G
yo solo creo en el amor
Intro
nada mas que en el amor.

Em
No loca, no lo intentes,
F
si no me ves no existo,
G
yo solo quiero tu calor.
Intro
Nena linda dame tu amor...


F-G(2 veces)
F-G-A-B
Final en C
Suggest correction
Give kudos to tab author, rate the tab!
1 2 3 4 5
comments
print report bad tab
guest
You may want to rate the tab now too:
select rating
Wanna post a correction for this tab? Suggest correction