Oops, an error
Loading. Please wait.

Lo Que Mis Vecinos Creen Bass Tab

16 views 1 this week
no commentswrite comment
1 2 3 4 5
3 more votes to show rating
add to favorites
launch autoscroll
font size
0
reset
guitar tuner
Autoscroll
slow
fast
+/-
esc
set tempo
stop
Help us to improve Ultimate-Guitar.com Take our survey!
×
Intro

---------------------------
------2--3--4--5--3--5-----
----3----------------------
---------------------------


-----------------------------------------------------------------
----2--3----5--------2--3----5---------2--3----5-------2--3----5-
--3----------------3-----------------3---------------3-----------
-----------------------------------------------------------------


-----2--3----5-------2--3-----5------------------------------------
---3---------------3--------------------2--3----5------2--3-----5--
--------------------------------------3--------------3-------------
-------------------------------------------------------------------


-----4--5----7-------2--3-----5------------------------------
---5---------------3---------------------2--3--4--5--4--5----
---------------------------------------3---------------------
-------------------------------------------------------------


El tema es todo asi, fijense que al 00:41 segundos hase como un tiempo
pero no se preocupen, es todo con 'Do' : Cuerda 'La' 3er traste
Aguante gardeles

Caride
Suggest correction
Give kudos to tab author, rate the tab!
1 2 3 4 5
comments
print report bad tab
guest
You may want to rate the tab now too:
select rating
Wanna post a correction for this tab? Suggest correction