Oops, an error
Loading. Please wait.

Lo Que Mis Vecinos Creen Tab

21 views 1 this week
no commentswrite comment
1 2 3 4 5
3 more votes to show rating
add to favorites
launch autoscroll
font size
0
reset
how to read this tab
guitar tuner
Autoscroll
slow
fast
+/-
esc
set tempo
stop
Nota:
()   :levantar o bajar la cuerda, hasta donde lo indique el nª que esta
      dentro del paréntesis
h    : hamer on
p    :pull off
...  : pausa
/    : slide
^    : levantar la cuerda

Intro: D5 C5 G5 D5 (sin distorsión)

1)------------------------
2)------------------------
3)-7-7-7-6-6-6-5-5-5-4(3)--
4)------------------------
5)------------------------
6)------------------------

G5
Todos mis vecinos creen
G5                         G    A5 A#5 B5
que estoy completamente loco
C5
que no tengo nada en la cabeza
G5
todo el dia tomando cerveza
D5                  C5
sin embargo cuando toco
G5                      D5
no pueden parar de bailar.

Rocanrol, rocanrol,
es todo lo que puedo dar
rocanrol, rocanrol
es todo lo que puedo dar
y ahora que todos lo saben
me tienen que aguantar.

1)3-3-3-3-3-3-3-3-3-3-3|-3-3-3-3-3-3-3-3-3-3|-3-3-3-3-3-3-3-3-3-3-3-3-3-|
2)3-3-3-3-3-3-3-3-3-3-3|-3-3-3-3-3-3-3-3-3-3|-3-3-3-3-3-3-3-3-3-3-3-3-3-|
3)---------------------|--------------------|---------------------------|
4)---------------------|--------------------|---------------------------|
5)---------------------|--------------------|---------------------------|
6)---------------------|--------------------|---------------------------|

1)-----3-5^-3-5^-3-5^-----------10----10-----10----10-----------|
2)-4/5----------------------10^---10^----10^---10^------8...----|
3)--------------------------------------------------------------|
4)--------------------------------------------------------------|
5)--------------------------------------------------------------|
6)--------------------------------------------------------------|

                                                |desde aca, hacerlo
                                                |palm mute        |
1)------------------|---------------------------------------------|
2)-5p3h5p3----------|---------------------------------------------|
3)---------5-3------|5^-5-3----5^-3-5^-5-3------------------------|
4)-------------5...-|-------5---------------5....-5-3---------5...|
5)------------------|---------------------------------5-3----3----|
6)------------------|-------------------------------------5-3-----|


1)-5^-5-3---3-5-----6^-6-5-3-5-3----10----10---------------3...--|
2)-------5-----------------------10^---10^---10--8-10--8---------|
3)---------------------------------------------------------------|
4)---------------------------------------------------------------|
5)---------------------------------------------------------------|
6)---------------------------------------------------------------|

1)6-3-6-6-3-6...--6-3------------------|10-8-11-10----------8-10----
2)5-3-5-5-3-5...--5-3------------------|10-8-11-10------8-10----10p8
3)---------------------5^-3-5^-5-3-----|-----------8-10-------------
4)---------------------------------5...|----------------------------
5)-------------------------------------|----------------------------
6)-------------------------------------|----------------------------

1)--8-7-6-4------| esta ultima parte suena mejor sin distoricion
2)-7-6-5-5--4(3)-|
3)---------------|
4)---------------|
5)---------------|
6)---------------|

Presiento que estamos creando
una bola infernal,
de gente bien colocada
que de la vida quiere gozar
amigo no es imposible,
lo tenemos que intentar.

No importa que seas un viejo,
que tus piernas ya no den mas,
no importa que seas un pendejo
que en el mañana no quiere pensar,
lo importante es que si estamos juntos
no nos van a poder parar.

1)-3-3---3-3-|3-3--------|-3-3---3-3-|3-3--------|-3-3---3-3-|3-3-------|
2)-3-3-5-3-3-|3-3-5^-----|-3-3-5-3-3-|3-3-5^-----|-3-3-5-3-3-|3-3-5^----|
3)-----------|------3(2)-|-----------|------3(2)-|-----------|------3(2)|
4)-----------|-----------|-----------|-----------|-----------|----------|
5)-----------|-----------|-----------|-----------|-----------|----------|
6)-----------|-----------|-----------|-----------|-----------|----------|

1)-3-3---3-3-|3-3--------|---------------------------------|-------5^-
2)-3-3-5-3-3-|3-3-5^-----|--3-3-3-3-3-3--3-3--3-3--3-3--3-3|----5-3---
3)-----------|-------3(2)|5^---5^--5^--5^---5^---5^---5^---|-5-3------
4)-----------|-----------|---------------------------------|----------
5)-----------|-----------|---------------------------------|----------
6)-----------|-----------|---------------------------------|----------

1)-3------3...-----|
2)---5--3-3...-----|
3)-----------------|
4)-----------------|
5)-----------------|
6)-----------------|

*******************************************************************************************
bueno.. aca..esta...
cualquier duda o correccion hacerla a federnr_la25@
aguante los gardelitos
Suggest correction
Give kudos to tab author, rate the tab!
1 2 3 4 5
comments
print report bad tab
guest
You may want to rate the tab now too:
select rating
Wanna post a correction for this tab? Suggest correction