Oops, an error
Loading. Please wait.

Los Chicos De La Esquina Bass

48 views 1 this week
no commentswrite comment
1 2 3 4 5
3 more votes to show rating
add to favorites
launch autoscroll
font size
0
reset
guitar tuner
×
Best way to learn
"Los Chicos De La Esquina"
Autoscroll
slow
fast
+/-
esc
set tempo
stop
Los Chicos de la esquina!!!
En vivoo noo es el comun!
Ahora es nuestra la ciudad!!


G----------------------7----9----10----12|
D------7-0-5-5-7-------------------------|
A------------------5-----7---8---10------|
E----5-----------------------------------|
                                              X2

G-----------------7----5----4-----3-------|
D---7-0-5-5-7-----------------------------|
A--------------5-----3-----2----1---------|
E-5---------------------------------------|


asii ess todoo el temaa!!!!

en las partes q cambia es en los estribillos qq hacee


G-----------------------------------|
D-----------------------------------|
A----5--5-5-5-5---7-7-7-7-7-6-5-----|
E-----------------------------------|


G-----------------------------------|
D-----------------------------------|
A--5-5--5-5-5--7-7-7-7-7-7-77-7-7---|
E-----------------------------------|


G----------------------7----9----10----12|
D------7-0-5-5-7-------------------------|
A------------------5-----7---8---10------|
E----5-----------------------------------|
                                              X2

G-----------------7----5----4-----3-------|
D---7-0-5-5-7-----------------------------|
A--------------5-----3-----2----1---------|
E-5---------------------------------------|


si hay alguna duda con el tema este es mi mail.
Cejaseneas@
voten...tambien hay algunas canciones nuevas
q hice como nadie cree en mi cancion (ya esta correjida)
los penitentes!! voten!! un saludo!!
Suggest correction
Give kudos to tab author, rate the tab!
1 2 3 4 5
comments
print report bad tab
guest
You may want to rate the tab now too:
select rating
Wanna post a correction for this tab? Suggest correction