Oops, an error
Loading. Please wait.

Los Chicos De La Esquina Tab

64 views 1 this week
no commentswrite comment
1 2 3 4 5
3 more votes to show rating
add to favorites
launch autoscroll
font size
0
reset
how to read this tab
guitar tuner
×
Best way to learn
"Los Chicos De La Esquina"
Autoscroll
slow
fast
+/-
esc
set tempo
stop
Bueno paso la intro y el primer solo

intro (fijense bien el ritmo)

e|------------------------------|
b|----5x55---5------------------|
g|----5x55---5------5--7(8)7-5~-|
d|--7------7---5-7--------------|
a|------------------------------|
E|------------------------------|
Hace esto, y despues hace algo parecido pero con algunos cambios...

solo:

e|---------------------------------------------------------
b|------------------------------------------------5--8p5---
g|--7(8)-7p5-7-----5-7--7(8)-7p5-7--5-7-5-7-5-7-5--------7-
d|--------------5h7----------------------------------------
a|---------------------------------------------------------
E|---------------------------------------------------------

--------------------7-8-7-8-7-8-8h10-8p7--7-8-7------------
-5~---------------5-----------------------------10-8-8p10--
----5-7-5-7-5-7-5------------------------------------------
-----------------------------------------------------------
-----------------------------------------------------------
-----------------------------------------------------------

----------8-10-8-10(11)-10-10(11)-10-8---8-10-8-10-10/12**12/15**/17**-19*-17-12~-|
-10--8h10------------------------------10-----------------------------------------|
----------------------------------------------------------------------------------|
----------------------------------------------------------------------------------|
----------------------------------------------------------------------------------|
----------------------------------------------------------------------------------|


Aguante Los gardeles....el 17 de julio en Moreno....nos vemos
Suggest correction
Give kudos to tab author, rate the tab!
1 2 3 4 5
comments
print report bad tab
guest
You may want to rate the tab now too:
select rating
Wanna post a correction for this tab? Suggest correction