Oops, an error
Loading. Please wait.

Los Moais Tab

50 views 1 this week
no commentswrite comment
1 2 3 4 5
3 more votes to show rating
add to favorites
launch autoscroll
font size
0
reset
how to read this tab
guitar tuner
×
Best way to learn
"Los Moais"
Autoscroll
slow
fast
+/-
esc
set tempo
stop
Intro hace este arpegio

1|----5---------5------------5-------5-----------0---------0---------0------0------------|X3
2|------3---------3------------3-------3-----------3---------3---------3------3----------|
3|--------3---------3------------3-------3-----------2---------2---------2------2--------|
4|-3----------------------3-------------------0-------------------0----------------------|
5|---------------------------------------------------------------------------------------|
6|---------------------------------------------------------------------------------------|

1|----5--------5------------5-------5-----------5-------5----------5----------------|
2|------3--------3------------3-------3-----------2-------2-----------2-------------|
3|--------3--------3------------3-------3-----------2-------2-----------2-----------|
4|-3--------------------3--------------------2-------------------2------------------|
5|----------------------------------------------------------------------------------|
6|----------------------------------------------------------------------------------|
y despues esto..............
Riff1
1|----------------------------5-5-----5-5-------5-5----5----------------------------|
2|----------------------------------------------------------------------------------|
3|--------0h2p0---------------------------------------------------------------------|
4|-0-2-3---------3-2-0--2/3--------3-------3-2------2-------------------------------|
5|----------------------------------------------------------------------------------|
6|----------------------------------------------------------------------------------|
Riff2
1|---------------------------3--5--5-3-5--------5-5-----5---------------------------|
2|----------------------------------------------------------------------------------|
3|-------0h2p0----------------------------------------------------------------------|
4|-0-2-3--------3-2-0--2/3----------------3-2--------2------------------------------|
5|----------------------------------------------------------------------------------|
6|----------------------------------------------------------------------------------|
Riff1
Por las profundas sendas del mar
te ven venir
Riff2
mirando siempre al mismo lugar
alli estan
Riff3
el infinito cayo a tus pies aqui
Riff1
y entre estas moles vuelves a ser
un dios

Riff3
1|---------------------------6-6--6-5-3-1-3--------5-5------5------------------|
2|-----------------------------------------------------------------------------|
3|-------0h2p0-----------------------------------------------------------------|
4|-0-2-3--------3-2-0--2/3-------------------3-2--------2----------------------|
5|-----------------------------------------------------------------------------|
6|-----------------------------------------------------------------------------|

Riff4
1|-8-6----------------------------------------------------------------------|
2|------9-8-6---------------------------------------------------------------|
3|------------8-6-----------------------------------------------------------|
4|----------------9-8-6-------------8-8-------------------------------------|
5|-----------------------9-8-6--6-6-----------------------------------------|
6|---------------------------------------5-7-5-7-5-7-5---5-7-5-7-5-7-5------|

Riff4 x4
Y en el atardecer volveras a brillar
como brilla en el cielo la luz del sur
Y en el cuerpo de una araña
tendido en la playa ves
Los signos alcalinos de la eternidad

Ab
Son los moais
              Bb
De La isla de Pascua
Ab
son lo moais
                Bb
Los gigantes de piedra


Ab

1|---4---|
2|---4---|
3|---5---|
4|---6---|
5|---6---|
6|---4---|


Espero que les Sirva!!!!
Un Saludito a mi novia Karina Te amo!! y a Rodrigo T, Gaston E. Emmanuel E.(Mendoza)
Rosario es el Rocanroll!!!
Suggest correction
Give kudos to tab author, rate the tab!
1 2 3 4 5
comments
print report bad tab
guest
You may want to rate the tab now too:
select rating
Wanna post a correction for this tab? Suggest correction