Oops, an error
Loading. Please wait.

Los Penitentes Bass

37 views 1 this week
no commentswrite comment
1 2 3 4 5
3 more votes to show rating
add to favorites
launch autoscroll
font size
0
reset
guitar tuner
×
Best way to learn
"Los Penitentes"
Autoscroll
slow
fast
+/-
esc
set tempo
stop
 Comienza la guitarra y en la segunda vuelta entra el bajo....

Intro

G---------------------------------------|
D------4--------------------------------|
A-2b-4b-2b--2-2-----0---2-2-2----0-2----|
E---------------2-2---2-------2-2-------|


|----------------------------------------|
|----------------------------------------|
|-4-4-----2---4--------------------------|
|-----4-4---4----------------------------|


|---------------------------------------------|
|---------------------------------------------|
|-2-2----0---2-2-2-----0-2--4--4------2--4-4--|X2
|-----2-2----2-------2-2-----------4--4---4---|


G--------------------------------------|
D------4-------------------------------|
A-2b-4b-2b--2-2-----0---2-2-2----0-2---|
E---------------2-2---2-------2-2------|


|----------------------------------------|
|----------------------------------------|
|-4-4-----2---4--4-4-3-2-----------------|
|-----4-4---4----------------------------|


|----2-0-2-4-2-4-2-4----4-4-6-6-6-6------|
|----------------------------------------|X2
|--2------------------4------------------|
|----------------------------------------|


asii es todoo despues de la parte antes del solo
. Hace asi


|--------------------------------|
|--------------------------------|
|------------2------------2--4---|
|-2---4---5------2--4--5---------|


|--------------------------------|
|--------------------------------|
|------------2-----------4-------|X2
|--2-2-0-2-0---2-2-0-2-0---------|

despues al fina vuelve a hacer

|--------------------------------|
|--------------------------------|
|------------2------------2--4---|
|-2---4---5------2--4--5---------|


|--------------------------------|
|--------------------------------|
|------------2-----------4-------|X2
|--2-2-0-2-0---2-2-0-2-0---------|


buenoo esperoo q les haya servido si tienen algunaa duda
cn el tmaa me avisan este es mi mail cejaseneas@
Suggest correction
Give kudos to tab author, rate the tab!
1 2 3 4 5
comments
print report bad tab
guest
You may want to rate the tab now too:
select rating
Wanna post a correction for this tab? Suggest correction