Oops, an error
Loading. Please wait.

Maquinas Viejas Tab

version 2
version 2

Whole song

28 views 1 this week
no commentswrite comment
1 2 3 4 5
3 more votes to show rating
add to favorites
launch autoscroll
font size
0
reset
how to read this tab
guitar tuner
Autoscroll
slow
fast
+/-
esc
set tempo
stop
Help us to improve Ultimate-Guitar.com Take our survey!
×
Intro:

   C                    Dm
e|------------------------1-1-1-1---|
B|----1-------------------3-3-3-3---|
G|----0-------------------2-2-2-2---|
D|----2-------0-0h2-0-----0-0-0-0---|
A|-3--3-3-3-3-----------------------|
E|----------------------------------|
                 C
e|---------------------------------------------------|
B|-----------1----------------1-1-1------------------|
G|-----------0--0h2-0---------0-0-0------------------|
D|-0h2-0-----2--------0h2-----2-2-2------------------|
A|-------2-3-3------------3---3-3-3----0-0-0-0---0-3-|
E|---------------------------------------------3-----|

   C                    Dm                C
e|------------------------1-1-1-1-------------------|
B|----1-------------------3-3-3-3-------1-----------|
G|----0-------------------2-2-2-2---0h2-------------|
D|----2-------0-0h2-0-----0-0-0-0-----------0h2-----|
A|-3--3-3-3-3------------------------------------3--|
E|--------------------------------------------------|

C - C* (varia un poco)

Em - Em* - Em**
Am - Amsus - Am
Em - Em* - Em**
Am - Amsus - Am
Dm - Dmsus - Dm
G7 - G6 - G7
C
G* - Cmaj7/G
G** - G


C
Si una estrella fugaz
           Dm
cruza el cielo
                 C
y no sabes donde va.

Si sabes que en el mundo
nadie puede llegar
hasta el fondo del mar.

Si sabes que es en vano
seguir esperando a un tren
que nunca llegara.

    F
Son maquinas viejas
    C
que se estan oxidando
    F
detras de aquellas rejas
    C
y que estan esperando
     Em         Am
navegar, en el mar
      Dm  G7    C     G
de la li-libertad


Acordes:

Acordes:

Em*:    022005
Em**:   022003
G*:     032013
Cmaj7/G:032003
G**:    320013
C*:     032030
Suggest correction
Give kudos to tab author, rate the tab!
1 2 3 4 5
comments
print report bad tab
guest
You may want to rate the tab now too:
select rating
Wanna post a correction for this tab? Suggest correction