Oops, an error
Loading. Please wait.

Mezcla Rara Bass

27 views 1 this week
no commentswrite comment
1 2 3 4 5
3 more votes to show rating
add to favorites
launch autoscroll
font size
0
reset
guitar tuner
Autoscroll
slow
fast
+/-
esc
set tempo
stop
INTRO

G|--------------------------------------------|
D|--------------------------3-0-2-2-3-2-------|
A|-----7---5-5-7-5-3-0------------------3-2---|  X2
E|-5-5---8--------------1-1-------------------|


G|---------------------------------------------|
D|-----7---5-5-7-5----------3-0-2-2-3-2--------|
A|-------7---------7-5------------------3-2----|
E|-5-5------------------1-1--------------------|


Somos, una mezcla rara..
Mandamos todo a la concha de su hermana..
No nos importan los horarios ni los calendarios,
que nos dicen que no existe el mañana..

Ahora mismo te entregaré un abismo,
quiero que seas el dueño de vos mismo..
estoy cansado de pensar, que es lo q va a pasar

G|--------------------------------------------------------|
D|--------------------------------------------------------|
A|----------8-8-8-8-8-8-8---------------------------------|
E|-5-5--8-8----------------5-5-4-3--3-3-2-1-1-1-1-1-1-1---|

si mi mente se cuelga un poco mas..
si mi mente me lleva un poco mas... alla!


G|--------------------------------------------|
D|--------------------------3-0-2-2-3-2-------|
A|-----7---5-5-7-5-3-0------------------3-2---|  X2
E|-5-5---8--------------1-1-------------------|


Y si te digo que no te entiendo nada,
a la salida nos matamos a trompadas,
porque es dificil comprender otra forma de ser,


G|--------------------------------------------------------|
D|--------------------------------------------------------|
A|----------8-8-8-8-8-8-8---------------------------------|
E|-5-5--8-8----------------5-5-4-3--3-3-2-1-1-1-1-1-1-1---|


diferente de lo que quiero ver..
diferente de lo que puedo ver...en mi

G|--------------------------------------------|
D|--------------------------3-0-2-2-3-2-------|
A|-----7---5-5-7-5-3-0------------------3-2---|  X2
E|-5-5---8--------------1-1-------------------|


G|-------------------------------------|
D|-------------------------------------|
A|----------------8-8-8-7-7-7-7--------|  X4
E|-5-5-5--8-8-8-8----------------------|


G|------------------------|
D|------------------------|
A|-5----7----8----12------|  dejar sonando en cada nota
E|------------------------|

El cielo se desploma, sobre nuestras cabezas
y a nadie le importa si estamos aca..

G|---------------------------------------|
D|---------------------------------------|
A|-8-8--7-7--5-5------------7-7-7-7-7----|
E|----------------0-0-0-0-0--------------|

Bailando junto al fuego, buscando alguna luz
en medio de esta oscuridad..!
Suggest correction
Give kudos to tab author, rate the tab!
1 2 3 4 5
comments
print report bad tab
guest
Wanna post a correction for this tab? Suggest correction