Oops, an error
Loading. Please wait.

Mezcla Rara Tab

125 views 1 this week
no commentswrite comment
1 2 3 4 5
3 more votes to show rating
add to favorites
launch autoscroll
font size
0
reset
how to read this tab
guitar tuner
Autoscroll
slow
fast
+/-
esc
set tempo
stop
Help us to improve Ultimate-Guitar.com Take our survey!
×
Sintáxis:
~~ : Dejar sonar (no es Vibrato)
 X : Nota muerta

Intro:

e|--------------|----------------|------------|---------------|
B|--------------|----------------|------------|---------------|
G|--------------|----------------|------------|---------------|
D|------2----0--|---0-2-0--------|-----3-0-2--|-2-3-2-0-------|
A|--0-0---0-----|----------3-2-0-|------------|----------3-2--|
E|--------------|----------------|-1-1--------|---------------|

e|--------------|----------------|--------------|
B|--------------|----------------|--------------|
G|--------------|----------------|--------------|
D|------2----0--|---0-2-0--------|-----3-0-2~~--|
A|--0-0---0-----|----------3-2-0-|--------------|
E|--------------|----------------|-1-1----------|


Am    Am/G           F    E
Somos una mezcla rara
         Am        Am/G              F     E
Mandamos todo a la concha de su hermana
          Am          Am/G      F            E
No nos importan los horarios, ni los calendarios
         Am      Am/G              F     E
Que nos dicen que no existe el mañana

(Idem)
Ahora mismo te entregaré a un abismo
Quiero que seas el dueño de vos mismo
Estoy cansado de pensar qué es lo que va a pasar

       A5   C5               F5
e|---------------------------------------------------|
B|---------------------------------------------------|
G|-----2-2--5-5--------------10-10-10-10-10-10-10-10-|
D|-----2-2--5-5--------------10-10-10-10-10-10-10-10-|
A|-----0-0--3-3--------------8--8--8--8--8--8--8--8--|
E|---------------------------------------------------|
Si mi mente se vuela un poco máaaaaaas...

           A5 G#5 G - G5 F#5 F5               E5
e|----------------------------------------------|
B|----------------------------------------------|
G|----------14-13-12--12-11-10--10-10-10-10--9--|  Engancha al toque
D|----------14-13-12--12-11-10--10-10-10-10--9--|  con el riff
A|----------12-11-10--10--9--8--8--8--8--8---7--|
E|----------------------------------------------|
Si mi mente me lleva un poco máaaaaaaaaas...allá!

Intro

(Idem)
Y si te digo que no te entiendo nada
A la salida nos matamos a trompadas
Por qué es difícil comprender otra forma de ser
Diferente de lo que quiero veeeeer...
Diferente de lo que puedo veeeeeer... en mi!

e--------------|----------------|------------|---------------|
B--------------|----------------|------------|---------------|
G--------------|----------------|------------|---------------|
D------2----0--|---0-2-0--------|-----3-0-2--|-2-3-2-0-------| 2 veces
A--0-0---0-----|----------3-2-0-|------------|----------3-2--|
E--------------|----------------|-1-1--------|---------------|

   A5   C5       F5   E5         A5   C5       F5     E5
e|-----------------------------|-------------------------------|
B|-----------------------------|-------------------------------|
G|-2-2--5-5-5-5----------------|-2-2--5-5-5-5--10-10--9-9-9-9--| 2 veces
D|-2-2--5-5-5-5--3-3--2-2-2-2--|-2-2--5-5-5-5--10-10--9-9-9-9--|
A|-0-0--3-3-3-3--3-3--2-2-2-2--|-0-0--3-3-3-3--8--8---7-7-7-7--|
E|---------------1-1--0-0-0-0--|-------------------------------|

      D5                 E5
e|--------------------------------------------|
B|--------------------------------------------|
G|-----7~~~----------------9~~~---------------|
D|-----7~~~----------------9~~~---------------|
A|-----5~~~----------------7~~~---------------|
E|--------------------------------------------|
   El cielo se desploma sobre nuestras cabezas

e|-------------------------------------------------|
B|-------------------------------------------------|
G|-----10~~~-------------------14~~~---------------|
D|-----10~~~-------------------14~~~---------------|
A|-----8~~~~-------------------12~~~---------------|
E|-------------------------------------------------|
   Y a nadie le importa si estamos acá
e|----------------------------------------------------|
B|----------------------------------------------------|
G|-----10-10--XX-XX-XX-XX-XX-----9-9--XX-XX-XX-XX-XX--|
D|-----10-10--XX-XX-XX-XX-XX-----9-9--XX-XX-XX-XX-XX--|
A|-----8--8---XX-XX-XX-XX-XX-----7-7--XX-XX-XX-XX-XX--|
E|----------------------------------------------------|
    Bailando junto al fuego, buscando alguna luz

   D5                    G5              E5
e|-----------------------------------------------------------|
B|-----------------------------------------------------------|
G|--7-7--XX-XX-XX-XX-XX--------------------------------------|
D|--7-7--XX-XX-XX-XX-XX--5-5-5-5-5-5-5-5--2-2-2-2-2-2-2-2-2--|
A|--5-5--XX-XX-XX-XX-XX--5-5-5-5-5-5-5-5--2-2-2-2-2-2-2-2-2--|
E|-----------------------3-3-3-3-3-3-3-3--0-0-0-0-0-0-0-0-0--|
En medio de esta oscuridaaaaaaaaaaaaaaaaaaaaaaaaaaaaaad...

Somos una mezcla rara
Mandamos todo a la concha de su hermana
No nos importan los horarios, ni los calendarios
Que nos dicen que ya no habrá un mañana

Ahora mismo te regalo mi abismo
Quiero que seas el sueño de vos mismo
Estoy cansado de pensar qué es lo que va a pasar
Si mi mente se vuela un poco máaaas
Si mi mente me lleva un poco máaaas...alla!

e--------------|----------------|------------|---------------|
B--------------|----------------|------------|---------------|
G--------------|----------------|------------|---------------|
D------2----0--|---0-2-0--------|-----3-0-2--|-2-3-2-0-------|
A--0-0---0-----|----------3-2-0-|------------|----------3-2--|
E--------------|----------------|-1-1--------|---------------|

e--------------|----------------|--------------|
B--------------|----------------|--------------|
G--------------|----------------|--------------|
D------2----0--|---0-2-0--------|-----3-0-2~~--|
A--0-0---0-----|----------3-2-0-|--------------|
E--------------|----------------|-1-1----------|

Y si decimos que somos diferentes
Seguramente es porque estamos de la mente
Porque no hay nada más extraño que ser tu adversario
Solamente por no pensar iguaaal...
solamente por no sentir iguaaal... que vos!

e--------------|----------------|------------|---------------|
B--------------|----------------|------------|---------------|
G--------------|----------------|------------|---------------|
D------2----0--|---0-2-0--------|-----3-0-2--|-2-3-2-0-------| 4 veces
A--0-0---0-----|----------3-2-0-|------------|----------3-2--|
E--------------|----------------|-1-1--------|---------------|

Termina con A5 (seco).
Suggest correction
Give kudos to tab author, rate the tab!
1 2 3 4 5
comments
print report bad tab
guest
You may want to rate the tab now too:
select rating
Wanna post a correction for this tab? Suggest correction