Oops, an error
Loading. Please wait.

Monoblock Tab

version 1
version 1

Whole song

13 views 1 this week
no commentswrite comment
1 2 3 4 5
3 more votes to show rating
add to favorites
launch autoscroll
font size
0
reset
how to read this tab
guitar tuner
×
Best way to learn
"Monoblock"
Autoscroll
slow
fast
+/-
esc
set tempo
stop
Correccion. La otra version estaba muy mal
Cualquier duda o consulta e23g11t89@

Intro: la guitarra criolla hace (Dm Am Bb F) x2, y la elcrtica
entra en Fa de esta manera

     F            Dm             Am         Bb          F
e|-1-3-3/5-|-1-1-----1p3-1-|-------------|-1---|-1-1--------1---|
B|-1-1-----|-3---3---------|-1-3-3/5-3-1-|---3-|-1---1--------1-|
G|-2-2-----|-2-----2-------|-------------|-----|-2-----2--------|
D|---------|---------------|-------------|-----|-3-------2-3----|
A|---------|---------------|-------------|-----|-3--------------|
E|---------|---------------|-------------|-----|-1--------------|

Dm
He venido del campo
Am
A trabajar en la cuidad
Bb
Ya me he oladidado del tren
F
Que una vez me trajo aca

En mi pueblo no pasaba nada
Y un dia me las tome
Mientras mi madre decia
No dejes de pensar en mi

Entre tantos edificios
Solo hallaras la soledad
Fui postergando mis sueños
Y mis ganas de regresar

Ahora tengo otros amigos
Otras cosas porque luchar
Solo a mi vieja le escribo
Es lo unico que tengo aya.

e|-------------------------|--|-----------------------------|--|------|
B|-------------------------|--|----3------1-----------------|--|------|
G|---3------2-----3-3----2-|x2|--3---3--2---2---3------2----|x2|-5--7-|
D|-5---5--3---3--5-5-5--3--|--|---------------5---5--3---3--|--|-5--7-|
A|-------------------------|--|-----------------------------|--|-3--5-|
E|-------------------------|--|-----------------------------|--|------|

F5            C5               D5  C5 D5 C5 D5
Si tantas personas que viven aquí
Porque no estan unidas para vivir
Si todas las mentes dicen que no
No vale la pena seguir por seguir
Los jovenes queren un poco de amor
Perdamos el miedo al ROCK AND ROLL

Bb           C5                D5     Riff
No dejes que el miedo destruya tu amor
No dejes que nada destruya tu amor
No dejes que el gobierno destruya tu amor
No dejes que la religion destruya tu amor
No dejes que la escuela destruya tu amor
No dejes que las leyes destruyan tu amor
No dejes que la soledad destruya tu amor
No dejes que la miseria destruya tu amor
No dejes que nada destruya ese amor nonono

Riff
e|-------------|
B|-------------|
G|-------------|
D|-3br-3-0---3-|
A|---------3-1-|
E|-------------|

Termina en Dm Am Bb F

Es una correccion del otro Tab que tenia un par de notas mas y
le agregue algunos riffs.

Korneta not Dead!!!!!
Suggest correction
Give kudos to tab author, rate the tab!
1 2 3 4 5
comments
print report bad tab
guest
You may want to rate the tab now too:
select rating
Wanna post a correction for this tab? Suggest correction