Oops, an error
Loading. Please wait.

Monoblock Tab

version 2
version 2

Whole song

17 views 1 this week
no commentswrite comment
1 2 3 4 5
3 more votes to show rating
add to favorites
launch autoscroll
font size
0
reset
how to read this tab
guitar tuner
×
Best way to learn
"Monoblock"
Autoscroll
slow
fast
+/-
esc
set tempo
stop
Hice unas correcciones de la versión anterior que subi.


Guitarra acústica: Dm Am Bb F

La guitarra eléctrica entra haciendo esto:
     F            Dm             Am         Bb            F
e|-1-3-3/5-5-|-1-1-----1p3-1-|-0-------------|-1-1----|-1-1--------1---|--|
B|-1-1-------|-3---3---------|-1-1-3-3/5-3-1-|-3--3---|-1---1--------1-|--|
G|-2-2-------|-2-----2-------|-2-------------|-3----3-|-2---------2----|x2|
D|-----------|---------------|-2-------------|-3------|-3-------3------|--|
A|-----------|---------------|---------------|-1------|-3-----3--------|--|
E|-----------|---------------|---------------|--------|-1--------------|--|

La guitarra eléctrica sigue haciendo este punteo mientras la acústica
hace esto:

Dm              Am
  He venido del campo,
Bb              F
  A trabajar en la ciudad
Dm                      Am
  Ya me he olvidado del tren
Bb               F
  Que una vez me trajo aca

En mi pueblo no pasaba nada
Y un dia me las tome
Mientras mi madre decia
No dejes de pensar en mi

Entre tantos edificios
Solo hallaras la soledad
Fui postergando mis sueños
Y mis ganas de regresar

Ahora tengo otros amigos
Otras cosas porque luchar
Solo a mi vieja le escribo
Es lo unico que tengo alla.

(Tocan las 2 guitarras juntas)

(Con acústica)
e|---------------------------|--|----------------------------|--|
B|---------------------------|--|---3------1-----------------|--|
G|---3------2-----3---3--2---|x2|-3---3--2---2--3---3----2---|x2|
D|-5---5--3---0--5-5-5--3-0--|--|--------------5-5-5-5-3---0-|--|
A|---------------------------|--|----------------------------|--|
E|---------------------------|--|----------------------------|--|


(Con eléctrica)
e|---------------------------|--|----------------------------|--|
B|---------------------------|--|----------------------------|--|
G|---3------2-----3---3--2---|x2|---3------2-------------2---|x2|
D|-5---5--3---0--5-5-5--3-0--|--|-5---5--3---3--2-5-2--3---0-|--|
A|---------------------------|--|----------------------------|--|
E|---------------------------|--|----------------------------|--|

C5 D5 (repite varias veces)


F5            G5               D5  C5 D5 C5 D5
Si tantas personas que viven aquí
Porque no estan unidas para vivir
Si todas las mentes dicen que no
No vale la pena seguir por seguir
Los jovenes queren un poco de amor
Perdamos el miedo al ROCK AND ROLL

Bb5           C5                D5     Riff
No dejes que el miedo destruya tu amor
No dejes que nada destruya tu amor
No dejes que el gobierno destruya tu amor
No dejes que la religion destruya tu amor
No dejes que la escuela destruya tu amor
No dejes que las leyes destruyan tu amor
No dejes que la soledad destruya tu amor
No dejes que la miseria destruya tu amor
No dejes que nada destruya este amor
No, no, no, no... Que nada destruya tu amor

Riff
e|-----------|
B|-----------|
G|---------3-|
D|-3-0-----3-|
A|-----3-0-1-|
E|-----------|


Termina tocando estos acordes: Dm Am Bb F
Suggest correction
Give kudos to tab author, rate the tab!
1 2 3 4 5
comments
print report bad tab
guest
You may want to rate the tab now too:
select rating
Wanna post a correction for this tab? Suggest correction