Oops, an error
Loading. Please wait.

No Puedo Parar Mi Moto Bass Tab

34 views 1 this week
no commentswrite comment
1 2 3 4 5
3 more votes to show rating
add to favorites
launch autoscroll
font size
0
reset
guitar tuner
×
Best way to learn
"No Puedo Parar Mi Moto"
Autoscroll
slow
fast
+/-
esc
set tempo
stop
Intro        
|------------------------------|
|----------4-------------------|
|-4-4--6-7---------------------|x3
|------------4--4-7-4-7-7-6----|

|------------------------------------|
|-------------------------6-4--------|
|---4-5-7---------4-5-7-------7-6----|
|-5-------4-2-0-5-------4------------|


Versos
|--------------------|
|-------4------------|
|-4-6-7--------------|x3
|---------4-7-6-4----|

|------------------------------------|
|-------------------------6-4--------|
|---4-5-7---------4-5-7-------7-6----|
|-5-------4-2-0-5-------4------------|


Baila nena quiero ver tu cara...
|------------------------------------------|
|------------------------------------------|
|-4--4-------4--4-6-7----------------------|x2
|------7-6-4----------4--4--4-7-4-7-7-4----|


El humo confunde a la gente...
|-----------------------------------------------------------------|
|--------------------------6-4------------------------------------|
|---4-5-7----------4-5-7-------7-6------------4-7-7-5-5-4-4-------|
|-5-------4-2-0-5--------4----------0--0--4-7---------------7-7---|

Es que no no puedo...
|----------------------------------------------------------------|
|-------------4------------4-------------------------------------|
|-----4-4-7-7--------4---7---7--------------4-7-7-5-5-4-4--------|x3
|-5-5-----------5--5---5-------0--0-4-4-7-7---------------7-7----|

Es que no puedo parar...
|--------------------------------------------------------------------------------|
|-----4-2---------3-1--------------------------4-4-----3-3-----------------------|
|---4-----4-2---3-----3-1--------------------4-------3---------------------------|
|-2-----------1-----------0(varias veces)--2-------1-------0--0-0-2-2-3-3-4-4----|


Solo de guitarra
|----------------------------------------------------------------|
|-------------4------------4-------------------------------------|
|-----4-4-7-7--------4---7---7--------------4-7-7-5-5-4-4--------|x2
|-5-5-----------5--5---5-------0--0-4-4-7-7---------------7-7----|


|----------------------------------------------------------------------------------|
|---9-9-7-----7-7-5----------------------------------------4--2---------3-1--------|
|---------9---------7------------4-7-7--5-5-4-4----------4------4-2---3-----3--1---|
|-7---------5----------0-4-4-7-7----------------7-7----2------------1------------0-|


Despues de todo esto empieza de nuevo desde el verso y al final se cuelga
tocando la base del solo de guitarra.

Algunas partes estan puestas basicamente, agreguen giladas ustedes.

Espero que les sirva, cualquier cosa manden mail.

Vamo el Nudo rnr!!!!
Suggest correction
Give kudos to tab author, rate the tab!
1 2 3 4 5
comments
print report bad tab
guest
You may want to rate the tab now too:
select rating
Wanna post a correction for this tab? Suggest correction