Oops, an error
Loading. Please wait.

No Puedo Parar Mi Moto Tab

19 views 1 this week
no commentswrite comment
1 2 3 4 5
3 more votes to show rating
add to favorites
×
Save as Personal and add changes to this tab that will be seen only by you. Learn more ›
×
You can save this tab as Personal to edit and correct it or add notes. All changes will be seen only by you. Learn more »
save as personal
new!
launch autoscroll
font size
0
reset
how to read this tab
guitar tuner
Autoscroll
slow
fast
+/-
esc
set tempo
stop
Los Gardelitos
No puedo parar mi moto
Los Gardelitos
Fiesta Sudaka 1 ()


INTRO:
-----

( C#m - G#m ) x 4
( A - G#m )   x 2

   C#m        G#m
---4-4--4-|-4-------------|
---5-5--5-|-4-------------|
---6-6--6-|-4-------------|
---6-6--6-|-6-------------| x4
---4-4--4-|-6-6-6-6-6-6-6-|
----------|-4-4-7-4-7-7-4-|

    A       G#m
---5-----|---4------|
-----5---|-----4----|
-------6-|-------4--|
-7-------|-6--------| x2
-7-------|-6--------|
-5-------|-4--------|


VERSO:
-----

    C#m         G#m        C#m         G#m
-----5------|----------|-----5----|------------|
-------4----|-----4----|-------4--|-----4-5p4--|
---------6--|---4---4--|---------6|---4-------4|
---6--------|-6--------|---6------|-6----------|
-4----------|----------|-4--------|------------|
------------|----------|----------|------------|


    C#m                G#m
Perdi mi reloj en la arena
    C#m                G#m
busque tu cara en el tiempo
    C#m                G#m
pero es un sueño la vida.

    A                  G#m
La sed no nos deja pensar
    A                  G#m
en tumbas muertos y calma.

Quise atrapar los espacios
los pueblos tienen mil años
la vieja angustia un dia.

El misterio se burla del tiempo
no abras nunca esa puerta.


ESTRIBILLO:
-----------
    C#5           Riff   G#5
----------------|-------------|
----------------|-------------|
-6-6--6--6-6--6-|-------------|
-6-6--6--6-6--6-|-------------| x2
-4-4--4--4-4--4-|-6-6-6-6-6-6-|
----------------|-4-7-4-7-7-4-|

 C#5
Baila nena quiero ver tu cara
           G#5  Riff
entre las luces hoy.

Baila el amo de tu alma
volvera en la sed de ser.


                  E7          A7             E7       D#7/E7
-----|------|--|---------|-5-5-5-5-5-5-5-|------------------------------------|
-----|------|--|-5-5-5-5-|-5-5-5-5-5-5-5-|-5-4-5-5-5--4/5\4/5-----------------|
-----|------|--|-7-7-7-7-|-6-6-6---------|-7-6-7-7-7--6/7\6/7-----------------|
--A--|-G#m--|x2|-6-6-6-6-|-5-5-5---------|-6-5-6-6-6--5/6\5/6-----------------|
-----|------|--|-7-7-7-7-|-7-7-7---------|-7-6-7-7-7--6/7\6/7-----------------|
-----|------|--|---------|-5-5-5---------|------------------------------------|

   A                   G#m
El humo confunde a la gente
   A                G#m   E7
todo se muere de repente, amigo
A7                         E7
No, no ,no , no puedo detenerme
A7                       E7
es que tengo algo aqui adentro
A7                           E7
siento que me estalla el corazon, oh oh!.

            F#
Es que no puedo parar
    F                  E
mi moto no la puedo parar
Es que no voy a parar
mi moto no la quiro parar

Solo: ( A7 - E7 )     x 2
      ( F# - F - E )  x 2

                              A7                               E7
---------------|-------7-6-5----5-----------------|------------------------|--
---------------|-4/5-5-------7b---7-7-5---5-7-5---|------------------------|--
---------------|------------------------7---------|-9-9-9-------9-9-9------|--
---------------|--------------------------------7-|-9-9-9-7h9-9-9-9-9-7-5--|--
-2-2-----------|----------------------------------|-----------------------7|--
-0-0-3-3-4-4-5-|----------------------------------|------------------------|--

             A7                               E7                 F#
--------7-6-5----5-------------------|-----------------------|-7-7-7-5-7-|--|-
-4/5-5--------7b----7-7-5----5-7-5---|-8-5---8-5---5-7-5---5-|-7-7-7-5-7-|--|-
---------------------------7---------|-----7-----7-------7---|-----------|--|-
-----------------------------------7-|-----------------------|-----------|--|-
-------------------------------------|-----------------------|-----------|--|-
-------------------------------------|-----------------------|-----------|--|-

     F           E           F#            F                  E
-7-7-7-5-7b-|----------|------------------------------------------------------
-7-7-7-5-7b-|----------|------------------------------------------------------
------------|-4b-4b-4b-|------------------------------------------------------
------------|----------|-12-11-10-11-10h11-10v-10-11-12-11-10-9v--------------
------------|----------|------------------------------------------------------
------------|----------|------------------------------------------------------

Ardiente miraste el dia
las rutas salen de tu cuerpo
apenas si viste la vida

El cielo te estaba esperando
respiras ahora el silencio

Desnuda cruzaste el bosque
tu cara dudaba en la lluvia
yo quise extenderte mi mano

Las esferas giraban en el cielo
ahora sos una de ellas

Baila...
El humo...
No, no, no...

Escriban a la direccion para compartir fechas con sus bandas en zona sur.

reygarufa6581@
Suggest correction
Give kudos to tab author, rate the tab!
1 2 3 4 5
comments
print report bad tab
guest
Wanna post a correction for this tab? Suggest correction