Oops, an error
Loading. Please wait.

Una Roca En El Humo Tab

version 1
version 1

Whole song

37 views 1 this week
no commentswrite comment
1 2 3 4 5
3 more votes to show rating
add to favorites
×
Save as Personal and add changes to this tab that will be seen only by you. Learn more ›
×
You can save this tab as Personal to edit and correct it or add notes. All changes will be seen only by you. Learn more »
save as personal
new!
launch autoscroll
font size
0
reset
how to read this tab
guitar tuner
Autoscroll
slow
fast
+/-
esc
set tempo
stop
Intro:

e|-----------------------0--------------|---
B|---------0------1--------3--1--0------|---
G|-------2---2------2---------------2---|---
D|-----2-------2------2-----------------|---     x 2
A|---0----------------------------------|---
E|--------------------------------------|---

Am - F - G - Am


D|-----------|------------|-------2--0-------|---------------
A|-----0-3-0-|-----0-3----|-----0------3-2---|--------0-3-0--
E|-0-3-------|-0-3-----1--|-0-1--------------|----0-3--------

D|-----------|------------|------------------|------------2--
A|-----0-3-0-|-----0-3----|-----0-3-2-0------|--------0-3----
E|-0-3-------|-0-3-----1--|-0-1---------3----|----0-3--------


 Am                  F
TANTA DISTANCIA DEL MAR HASTA HOY
 G                  Am
TANTOS MISTERIOS Y NINGUNA VERDAD
 Am                  F
MILLONES DE AÑOS Y NADA CAMBIO
 G                     Am
HICIMOS LAS GUERRAS Y NADA QUEDO
 Am                       F
DIOS ESTA MUERTO, NO HAY NADIE AQUI
 G                    Am
SOLO LOS RESTOS DE UN MUNDO INFELIZ.
     G        F        Am
UUH UUH, UUH UUH, UUH UUH,

CREI QUE ESTOS HOMBRES SABRIAN MIRAR
QUE NO HABIA PREGUNTAS QUE CONTESTAR
CREAMOS LAS LEYES Y DE NADA VALIO
HICIMOS CIUDADES Y DE NADA SIRVIO
Y SI FUERA EL INFIERNO QUE DIRIAS MI AMOR
NO LO IMAGINAS CON TANTO CONFORT
SIN EMBARGO ES ASI, YO SE QUE ES ASI CONFORTABLE

Sólo:
Am - F - G - Am   x2


TODAS MIS COSAS LAS TENGO AQUI
ENTRE EDIFICIOS TEÑIDOS DE GRIS
TODOS MIS SUEÑOS SEVAN AL CARAJO
EN TODO ESTE TIEMPO NO HAN PODIDO SER
DEJALO TODO Y VUELA HACIA EL MAR
SOLO EL CAMINO TE PUEDE LLEVAR
ERES UN HOMBRE Y QUE SOLO QUE ESTAS
VUELVE A INTENTARLO Y YA NO SERAS
UNA ROCA EN EL HUMO, UNA FLOR EN LA LLUVIA
SIN MIRADA

Sólo:

Am - F - G - Am  x2


despues hace la primera parte de la intro:

D|-----------|------------|-------2--0-------|---------------|
A|-----0-3-0-|-----0-3----|-----0------3-2---|--------0-3-0--|
E|-0-3-------|-0-3-----1--|-0-1--------------|----0-3--------|

y:

e|---0------|
B|-----1----|
G|-------2--|
D|----------|
A|----------|
E|----------|

     F  (acorde)

e|--1-------|
B|----1-----|
G|------2---|
D|--------3-|


     G  (acorde)

E|--0--------|
B|-----3--0--|


     Am  (acorde)


 Y FIN.


El sólo lo tengo, es fácil, menos la parte rápida esa, q no la tengo.
Capaz q si me pongo la saco.
Nos vemos locos ;)
Aguante el rockk
Suggest correction
Give kudos to tab author, rate the tab!
1 2 3 4 5
comments
print report bad tab
guest
Wanna post a correction for this tab? Suggest correction