Oops, an error
Loading. Please wait.

Una Roca En El Humo Tab

version 3
version 3

Whole song

16 views 1 this week
no commentswrite comment
1 2 3 4 5
3 more votes to show rating
add to favorites
launch autoscroll
font size
0
reset
how to read this tab
guitar tuner
Autoscroll
slow
fast
+/-
esc
set tempo
stop
Help us to improve Ultimate-Guitar.com Take our survey!
×
Intro:

Arpejiado en Am
E|------------------------0------------------|------|
B|--------0-------1--1-------3--1--0---------|------|
G|------2-------2------2--------------2------|dos---|
D|----2-------2------------------------------|veces-|
A|--0----------------------------------------|------|
E|-------------------------------------------|------|

Am-F-G-Am
E|--0------0------0------0---|
B|--1------1------3------1---|
G|--2------2------4------2---|
D|--2------3------5------2---|
A|--0------3------5------0---|
E|---------------------------|

Sobre los mismos acordes?
D|----------2~----------------------------------------------2~---|
A|-----0-3--0~-------0-3--3~--------0-3/7-5--3-2-------0-3--0~---|
E|-0-3-----------0-3------1~----0-3----------------0-3-----------|


D|----------2~------------------------------------------------2~---|
A|-----0-3--0~-------0-3--3~--------0-3/5-2--------------0-3--0~---|
E|-0-3-----------0-3------1~----0-3----------5-3-----0-3-----------|

Tanta distancia?..
E|-5-5--------5----|----------------------|------------------------|-5-|
B|-5--5----5---5---|-10-10---------10-----|-12-12-----------12-----|-5-|
G|-5---5--------5--|-10--10----10----10---|-12---12-----12----12---|-5-|
D|-7----7-7--7---7-|-10---10--10-10----10-|-12-----12--12-12----12-|-7-|
A|-7---------------|-8-----8--------------|-10-------10------------|-7-|
E|-5---------------|-X--------------------|-X----------------------|-5-|

Millones de años.....
E|------------------------------------------|
B|-------5-------------------6--------------|
G|--------5-----DOS------------5-----DOS----|
D|---7------7--VECES-----7-------7--VECES---|
A|-7---7-----7---------8---8------8---------|
E|------------------------------------------|

E|---------------------------------------------|
B|----------8--------------------5-------------|
G|------------7-------DOS----------5-----DOS---|
D|------9-------9----VECES----7------7---VECES-|
A|----10--10-----10----------7-7-------7-------|
E|---------------------------------------------|

Dios esta muerto?.
D|----------2~----------------------------------------------|
A|-----0-3--0~-------0-3--3~---------------5---5-3-5/7--7-7-|
E|-0-3-----------0-3------1~----1-0-1-0----3---3-1-3/5--5-5-|


Uuuuuu  Uuuuuuu
(G-F)pm-Am

Repite todo de vuelta solo que en el estribillo hace esto:

Sin embargo es asi?

E|--------------------------------------------------------|
B|--------------1-1-1-1-1---------------------------12----|
G|--------------2-2-2-2-2-------12----10------------14b---|
D|--------------2-2-2-2-2-------12----10---2~-------------|
A|--5-----3-----0-2-3-2-0-------10----8----0~-------------|
E|--3-----1-----------------------------------------------|

Solo sobre (Am-F-G-Am) X 2


E|---12-12-12-12----10-10-10-10----|
B|---10-10-10-10----10-10-10-10----|
G|---------------------------------|

E|------------------------------------------------------|
B|--13-13-13-13---12-12-12-12---10--10----10-10-11-12---|
G|--14-14-14-14---14-14-14-14---10--10h12-10-10-11-12---|

E|--------------------------5-------------------------------------------|
B|------------------------5---------------------------------------------|
G|-----5-7-7b9--5-7-5---7b------7b(10)7--5-7-5---5----------------------|
D|--5/7-----------------------------------------7--7---5-7-5-----5------|
A|------------------------------------------------------------7---------|
E|----------------------------------------------------------------------|


E|---12-12-12-12--10-10-10-10----|
B|---10-10-10-10--10-10-10-10----|
G|-------------------------------|

E|-------------------------------------------------------|
B|-13-13-13-13--12-12-12-12---12/15-15h17-15/18-17-18----|
G|-14-14-14-14--14-14-14-14------------------------------|

E|---------------------------------|
B|--17-18-18/20-18-17-15-15/17-----|
G|---------------------------------|

Repite otra vez lo cantado y el solo que tiene una parte distinta:

E|--------------------------------------------------|
B|--20b-17----17---tres-----------------------------|
G|---------19------veces---19b---17h19--17----------|
D|--------------------------------------------19----|

Termina con la intro
Suggest correction
Give kudos to tab author, rate the tab!
1 2 3 4 5
comments
print report bad tab
guest
You may want to rate the tab now too:
select rating
Wanna post a correction for this tab? Suggest correction