Oops, an error
Loading. Please wait.

Volar Tab

4 views 1 this week
no commentswrite comment
1 2 3 4 5
3 more votes to show rating
add to favorites
launch autoscroll
font size
0
reset
how to read this tab
guitar tuner
Autoscroll
slow
fast
+/-
esc
set tempo
stop
Help us to improve Ultimate-Guitar.com Take our survey!
×
Sin animos de corregir nada mando el puente Y
un arreglo que hace en el estribillo todo lo demas esta muy bien
luis martin Barreras de tucuman
gar_eli_korne@

INTRO
            X2                            X2
   G                             D
e|---------10--10-10-10-10---|------10-10-10-10-10-----|
B|------8------------------8-|---10----------------10--|
G|-/7-7----------------------|-11----------------------|
D|---------------------------|-------------------------|
A|---------------------------|-------------------------|
E|---------------------------|-------------------------|

           X2
   C                        G
|------8-8-8-8-8---------|---------10--10-10-10-10---|
|----8-----------8-------|------8------------------8-|
|-/9---------------------|-/7-7----------------------|
|------------------------|---------------------------|
|------------------------|---------------------------|
|------------------------|---------------------------|

          X2                              X2
  G                            D
|---------10--10-10-10-10---|------10-10-10-10-10-----|
|------8------------------8-|---10----------------10--|
|-/7-7----------------------|-11----------------------|
|---------------------------|-------------------------|
|---------------------------|-------------------------|
|---------------------------|-------------------------|

           X2
  C
|-------8-8-8-8-8--------|
|-----8------------------|
|-/9-9-------------------|
|------------------------|
|------------------------|
|------------------------|

   Em                      G

|-------------------------------------|
|-------------------------------------|
|---7-5-4---------7-5-4---------------|
|-5-------5---5-5-------5---5---------|
|-----------------------------5/7-5---|
|-------------------------------------|

   Em                      G
|-------------------------------------|
|-------------------------------------|
|-----7-5-4---------7-5-4-------------|
|-5-5-------5---5-5-------5---5-------|
|-------------------------------5/7-5-|
|-------------------------------------|

G-D-C - G

|-------------------------|-------------------------------------||
|-------------------------|-------------------------------------||
|-------------------------|-------------------------------------||
|---4-5-5/7--7/9-7-5-5-3--|-----2-4-4/5------4-2----------------||
|-5-----------------------|--/3------------------5-----3h5p3--2-||
|-------------------------|-------------------------------------||

ESTRIBILLO:
  MI                               SOL
 QUE PUDEN VOLAR Y PUEDEN SOÑAR MAS ALTO
  MI                                 RE
 QUE PUEDEN JUGAR Y PUEDEN SALTAR TAN ALTO
  DO                SOL
 TAN ALTO COMO EL SOL


Puente(para mi va en octava)


|-----------------------------------------------------|
|----------4--5--7---7--9--7--6--5---5--7--5--4-------| X2
|5----5----x--x--x---x--x--x--x--x---x--x--x--x--7--5-|
|x----x----2--3--5---5--7--5--4--3---3--5--3--2--x--x-|
|3----3------------------------------------------5--3-|


|-----------------------------------------------------|
|12---12--11-9--7----11--9--7--5----9--7--5--4--------|
|x----x---x--x--x----x---x--x--x----x--x--x--x---7--5-|
|10---10--9--7--5----9---7--5--3----7--5--3--2---x--x-|
|------------------------------------------------5--3-|


ESTRIBILLO:
En la parte de Re rasga Re y despues rasga esto:

|---15---|
|---15---|
|---14---|
|--------|
|--------|

En la parte del Do hace lo mismo pero con esto:

|---13---|
|---13---|
|---12---|
|--------|
|--------|

FIN en SOL


ESPERO QUE LES SEA UTIL...
Este tema es dedicado para el gran KORNETA
que seguro nos mira desde el cielo

'viste lo que paso en la radio mentian tambien en la television
un ajuste no es justo con mi corazon'
Suggest correction
Give kudos to tab author, rate the tab!
1 2 3 4 5
comments
print report bad tab
guest
You may want to rate the tab now too:
select rating
Wanna post a correction for this tab? Suggest correction