Oops, an error
Loading. Please wait.

La Balsa Chords

version 2
version 2

Whole song

286 views 1 this week
no commentswrite comment
1 2 3 4 5
2 more votes to show rating
add to favorites
×
Save as Personal and add changes to this tab that will be seen only by you. Learn more ›
×
You can save this tab as Personal to edit and correct it or add notes. All changes will be seen only by you. Learn more »
save as personal
new!
launch autoscroll
font size
0
reset
transpose
0
reset
simplify chords
display chords
guitar tuner
Autoscroll
slow
fast
+/-
esc
set tempo
stop
Strumming
There is no strumming pattern for this song yet. and get +5 IQ
 INTRO


 |------------------------------------------------------|
 |----------2---2-2---2---2-2---------2---2-2---2---2-2-| primera
 |----------1---1-1---1---1-1---------3---3-3---3---3-3-| parte
 |----------2---2-2---2---2-2---------4---4-4---4---4-4-| intro
 |----0h2---2---2-2---2---2-2---------4---4-4---4---4-4-|
 |--0-------------------------0-1-2---2---2-2---2---2-2-|


 |--------------------------------------------------|
 |---------2---2-2---2------------2---2-2---2---2-2-| segunda
 |---------2---2-2---2------------1---1-1---1---1-1-| parte
 |---------2---2-2---2---0--------2---2-2---2---2-2-| intro
 |--0-2-3------------------2--0---2---2-2---2---2-2-|
 |--------------------------------------------------|


 E6
 Estoy muy solo y triste

                     F#
 acá en este mundo abandonado

 A
 Tengo una idea, es la de irme

                      E6
 al lugar que yo mas quiera

  E6
 Me falta algo para ir

                       F#
 pues caminando yo no puedo

      F#m      F#m7 
 Construiré una balsa

  F#m7   B7    E6
 y  me iré a naufragar

 C#7
 Tengo que conseguir

        F#m
 mucha madera

  D#7
 tengo que conseguir

          G#
 de donde pueda

  B
 ah. ah

 E6
 Y cuando mi balsa esté lista

                   F#
 partiré hacia la locura

 A
 Con mi balsa


 yo me iré a naufragar

 C#7
 Tengo que conseguir

       F#m
 mucha madera

  D#7
 tengo que conseguir

          G#
 de donde pueda


      F#m    F#m7 
 con mi balsa

 F#m7  B7        G#m   C#7
 yo me iré a naufragar

          Am
 con mi balsa

        B7
 yo me iré

       G#m    F#m
 a naufragar

       G#m    F#m
 a naufragar...
Suggest correction
Give kudos to tab author, rate the tab!
1 2 3 4 5
comments
print report bad tab
guest
Wanna post a correction for this tab? Suggest correction