Oops, an error
Loading. Please wait.

Yolanda Bass Tab

77 views 1 this week
no commentswrite comment
1 2 3 4 5
3 more votes to show rating
add to favorites
launch autoscroll
font size
0
reset
guitar tuner
×
Best way to learn
"Yolanda"
Autoscroll
slow
fast
+/-
esc
set tempo
stop
PARA LOS QUE LES GUSTA ESTA ROLA HAY LES VA EL BAJEO DE LA CANCION
SOLO LES VOY  A PONER LAS FIGURAS DE DONDE VAN LOS TONOS LA CANCION
ESTA EN Em ASI QUE YA  VAN


aqui les pongo la idea del bajeo de la cancion es cumbia  asi que no creo
que este muy complicada


          Em                            B7

 G -------------------------------------------------------
 D -------------------------------------------------------
 A --7-------7---------7------------------9----9---9------
 E ----7-10----7-10-------7-10----4-5-6-7----7---7--------


          B7                 Em
 G ---------------------------------------------------------------
 D --9--------9---------------------------------------------------
 A ----9-11-----9-11---4-5-6-7-------7----------------------------
 E ----------------------------7-10----7-10-----------------------

       AQUI ES DONDE SUBE  AL AGUDO    DONDE DICE :
   'y me la paso pensando en ti sin olvidar tu manera de mirar'

          Am    Em      B7    Em     Am     Em    B7   Em

 G ---------------------------------------------------------------
 D ---------------------------------------------------------------
 A ---------5-6-7----------9--7--3------5-6-7-------9--7------7---
 E -------5---------5-6-7----------0-5--------5-6-7------7-10-----


ORALE CUALQUIER DUDA O  COMENTARIO AHI TIENEN MI E MAIL ADDRESS PARA
QUE ME CORRIJAN  NOS VEMOS LUEGO
Suggest correction
Give kudos to tab author, rate the tab!
1 2 3 4 5
comments
print report bad tab
guest
You may want to rate the tab now too:
select rating
Wanna post a correction for this tab? Suggest correction