Oops, an error
Loading. Please wait.

Inadaptado Bass Tab

182 views 3 this week
no commentswrite comment
1 2 3 4 5
3 more votes to show rating
add to favorites
launch autoscroll
font size
0
reset
guitar tuner
×
Best way to learn
"Inadaptado"
Autoscroll
slow
fast
+/-
esc
set tempo
stop
ESTA ES MI PRIMERA TAB. ESPERO QUE LES GUSTE.

INTRO (OPCIONAL, EL BAJO ES MUY TENUE)

G-----------------------------------------
D-----------------------------------------
A---------2-(2)--3-(3)--3-(3)-------------
E--3-(3)----------------------------------

DESDE QUE TE VI....(PUEDES HACER SILENCIO O ACOMPAÑAR CON EL INTRO)

G-----------------------------------------
D-----------------------------------------    X2
A---------2-(2)--3-(3)--3-(3)-------------
E--3-(3)----------------------------------

SE QUE SOY UN CREEP....

G------------------------------------
D---------------------1-4-1---1-4-1--
A----2-5-2---2-5-2--2-------2--------
E--3-------3-------------------------

G---------------------------------------
D---2-5-2---2-5-2---2-5-2---------------
A-3-------3-------3-------3/1-----------
E---------------------------------------

YA NO SE QUIÉN SOY....

G------------------------------------
D---------------------1-4-1---1-4-1--
A----2-5-2---2-5-2--2-------2--------
E--3-------3-------------------------

G----------------------------------------
D----2-5-2---2-5-2---2-5-2---2-5-2-------
A--3-------3-------3-------3-------------   X5
E----------------------------------------

YA NO SE QUE HACER....

G----------------------------------
D---------------------1-4-1---1-4-1
A----2-5-2---2-5-2--2-------2------
E--3-------3-----------------------

G----------------------------------------
D----2-5-2---2-5-2---2-5-2---------------
A--3-------3-------3-------3/1-----------
E----------------------------------------

POR TENER TU AMOR....
G----------------------------------
D----------------------------------
A----------2----3----3---(3)-------
E---3-------------------------3----

/ SLIDE
() TENUE O CON UN PEQUEÑO HAMMER


ESO ES TODO SOY FITO  ESTA CANCION ME GUSTA MUCHO Y EL ROCKABILLY TAMBIÉN
SE LA DEDICO A TODOS MIS AMIGOS LOS MAGNIS!!!
Suggest correction
Give kudos to tab author, rate the tab!
1 2 3 4 5
comments
print report bad tab
guest
You may want to rate the tab now too:
select rating
Wanna post a correction for this tab? Suggest correction