Oops, an error
Loading. Please wait.

La Vaca Blanca Tab

172 views 1 this week
no commentswrite comment
1 2 3 4 5
3 more votes to show rating
add to favorites
launch autoscroll
font size
0
reset
how to read this tab
guitar tuner
×
Best way to learn
"La Vaca Blanca"
Autoscroll
slow
fast
+/-
esc
set tempo
stop
Bueno aquí les traigo un gran tema del recuerdo
 que inmortalizo ala cumbia peruana
quien les habla (zamuel campos)quiero difundir la música peruana
muy pronto haré tutoriales
en youtube de este y muchos temas mas
cualquier duda :::  Zam C. Zilvestre este mi facebook

                              DISFRÚTENLO

[Intro]


   Bm                                   A
E|------------------------10-14-10---------------------------9-10-9-----|
B|-12-12----12----12---12----------12-/-10-10---10---10---10--------10/-|
G|-------11----11-----------------------------9----9--------------------|
D|----------------------------------------------------------------------|
A|----------------------------------------------------------------------|
E|----------------------------------------------------------------------|

  Bm                                    A
E|------------------------10-14-10---------------------------9-10-9-----|
B|-12-12----12----12---12----------12-/-10-10---10---10---10--------10/-|
G|-------11----11-----------------------------9----9--------------------|
D|----------------------------------------------------------------------|
A|----------------------------------------------------------------------|
E|----------------------------------------------------------------------|

  G                      D                        A
E|-----7-10------7-10-------------10---------10---9----9-12--------9-12-|
B|-8-8-------8-8---------------10---------10--------10-------10-10------|
G|---------------------9/11-11------11-11-------------------------------|
D|----------------------------------------------------------------------|
A|----------------------------------------------------------------------|
E|----------------------------------------------------------------------|

   D                  G                    D
E|-10----10-9-8-7-5-------7-10-----7-10-------------10-----------10-----|
B|-10-10------------7/8-8------8-8---------------10-----------10--------|
G|---------------------------------------9/11-11--------11-11-----------|
D|----------------------------------------------------------------------|
A|----------------------------------------------------------------------|
E|----------------------------------------------------------------------|

    A                       D
E|--9----9-12-----10----12-14--|
B|----10-------10----10--------|
G|-----------------------------|
D|-----------------------------|
A|-----------------------------|
E|-----------------------------|


1ra ESTROFA


D
  Yo tenía una vaca blanca


  Yo tenía una vaca blanca

                     A
  Que se llamaba piedad


    A
E|-------------------------------------------------------12---|
B|-------10-12-10-12-10--------10-12-10-12-10---------10------|
G|-----9---------------------9----------------9-----9---------|
D|--11--------------------11---------------------11-----------|
A|------------------------------------------------------------|
E|------------------------------------------------------------|


A
  Estaba comprometida


  Estaba comprometida

                        D
  con un torito de sociedad


    D
E|---------------------------------------------------------10---|
B|--------10-12-10-12-10---------10-12-10-12-10---------10------|
G|-----11---------------------11----------------11----11--------|
D|--12--------------------12-----------------------12-----------|
A|--------------------------------------------------------------|
E|--------------------------------------------------------------|


(Rep.: ESTROFA)


ESTRIBILLO:


G                                       D
Ella me pidió permiso pa` contraer matrimonio

                 A
Con un torito pintado que dicen que es un demonio

     D7         G     D
Y yo le negué pu pupu pu?
          A                                 D
Con ese toro pintado que dicen que es un demonio


CORO:
Bm                                   A
Hay hay hay la vaca blanca se me marcho
                              Bm
Hay hay hay ese torito se la llevo...x2

(INTRO)-----(ESTROFA)---(CORO)---(INTRO)-


 ******************FIN**********************
Suggest correction
Give kudos to tab author, rate the tab!
1 2 3 4 5
comments
print report bad tab
guest
You may want to rate the tab now too:
select rating
Wanna post a correction for this tab? Suggest correction