Oops, an error
Loading. Please wait.

La Llorona Loca Tab

183 views 1 this week
no commentswrite comment
1 2 3 4 5
3 more votes to show rating
add to favorites
launch autoscroll
font size
0
reset
how to read this tab
guitar tuner
Autoscroll
slow
fast
+/-
esc
set tempo
stop
         A
Por una calle cerca de la prepa
           E                A
dicen que sale una llorona loca
         A
por una calle cerca de la prepa
           E                A
dicen que sale una llorona loca.

               D
Que baila el twist asi
               A
que baila el twist tambien
             E              A
que si la miras todito te alocas
               D
Que baila el twist asi
               A
que baila el twist tambien
             E              A
que si la miras todito te alocas.

A
A mi me salio la noche
        E           A
de mi examen semestral
A
movi­a tanto la cintura
       E                  A
que crei­ se le iba a quebrar
    D              A
le dije pare un momento
     E               A
no mueva tanto el motor
      D                     A
y al ver que era un gran espanto
        E             A
ay mi cuate que carreron!!!
      D                     A
y al ver que era un gran espanto
        E             A
ay mi cuate que carreron!!!

        E             A
Que me coge! que me agarra!
          E                       A
que me alcanza la llorona por detras
        E             A
Que me coge! que me agarra!
          E                       A
que me alcanza la llorona por detras


SOLO DE GUITARRA

A
A mi me salio la noche
        E           A
de mi examen semestral
A
movi­a tanto la cintura
       E                  A
que crei­ se le iba a quebrar
    D              A
le dije pare un momento
     E               A
no mueva tanto el motor
      D                     A
y al ver que era un gran espanto
        E             A
ay mi cuate que carreron!!!
      D                     A
y al ver que era un gran espanto
        E             A
ay mi cuate que carreron!!!

        E             A
Que me coge! que me agarra!
          E                       A
que me alcanza la llorona por detras
        E             A
Que me coge! que me agarra!
          E                       A
que me alcanza la llorona por detras


SOLO DE GUITARRA:

   A
e --5-4-5-4-5-4-5-----5-4-5-4-5-4-5----
B --5-4-5-4-5-4-5-----5-4-5-4-5-4-5----
G -------------------------------------
D -------------------------------------
A -------------------------------------
E -------------------------------------
   D
e --10-9-10-10-10-----10-9-10-10-10----
B --10-9-10-10-10-----10-9-10-10-10----
G -------------------------------------
D -------------------------------------
A -------------------------------------
E -------------------------------------
   A                 E
e --5-4-5-4-5-4-5-----12-11-12-12-12---
B --5-4-5-4-5-4-5-----12-11-12-12-12---
G -------------------------------------
D -------------------------------------
A -------------------------------------
E -------------------------------------
   D                 A
e --10-9-10-10-10-----5-4-5-4-5-4-5----
B --10-9-10-10-10-----5-4-5-4-5-4-5----
G -------------------------------------
D -------------------------------------
A -------------------------------------
E -------------------------------------


Suggest correction
Give kudos to tab author, rate the tab!
1 2 3 4 5
comments
print report bad tab
guest
Wanna post a correction for this tab? Suggest correction