Oops, an error
Loading. Please wait.

El Arruinado Tab

22 views 1 this week
no commentswrite comment
1 2 3 4 5
3 more votes to show rating
add to favorites
launch autoscroll
font size
0
reset
how to read this tab
guitar tuner
×
Best way to learn
"El Arruinado"
Autoscroll
slow
fast
+/-
esc
set tempo
stop
e|------------------------------------------------------------------
b|---4-7-8888-10-8-7---4-5-7777-8-7-5-------------------------------
g|-4-----------------4----------------------------------------------
d|------------------------------------------------------------------
a|------------------------------------------------------------------
e|------------------------------------------------------------------

e|------------------------------------------------------------------
b|---4-7-8888-10-8-7---4-5-7777-8-7-5-------------------------------
g|-4-----------------4----------------4-0---------------------------
d|----------------------------------------4-2-----------------------
a|------------------------------------------------------------------
e|------------------------------------------------------------------


Em
Si hubiera huevos le fritaba uno
                             B7
pero como hago si no hay manteca

si hubiera quesito le daba un pedazo
                               Em
pero pa' que si es que no hay arepa

si hubiera limón le hacia limonada
                           B7
pero no puedo, no hay ni agüita

si tuviera arroz le daría almuerzo
                         Em
pero no hay plato ni cucharita

si hubieran plátanos le asaba uno
                         B7
pero de malas no hay parrilla

si hubieran buñuelos tambien le daría
                        Em     E7
pero pa' que si no hay natilla
            Am
si hubiera olla le hacía agua dulce
                             Em
pero yo que hago si no hay panela
                             B7
si hubiera fogón le fritaba carne
                        Em
pero disculpe no hay cazuela

     Am
\\ a bueno de eso pa' comer con esto
                          Em
como es de bueno eso con esto
                                   B7
si hubiera de eso yo comía con de esto
                                   Em
pero no hay de esto pa' comer con esto//


e|------------------------------------------------------------------
b|---4-7-8888-10-8-7---4-5-7777-8-7-5-------------------------------
g|-4-----------------4----------------------------------------------
d|------------------------------------------------------------------
a|------------------------------------------------------------------
e|------------------------------------------------------------------

e|------------------------------------------------------------------
b|---4-7-8888-10-8-7---4-5-7777-8-7-5-------------------------------
g|-4-----------------4----------------4-0---------------------------
d|----------------------------------------4-2-----------------------
a|------------------------------------------------------------------
e|------------------------------------------------------------------


    Em
Si fuera soltero te daba un besito
                       B7
pero no puedo, yo soy casado

si tuviera parba te daría merienda
                     Em
pero perdona no hay cacao

si hubiera papas le hacía sancocho
                          B7
pero no hay yuca ni tengo sal

a bueno menuda pa' darle un peso
                           Em
pero no hay gruesa para cambiar

que le de treinta, usted pa' que veinte
                                        B7
si quince es mucho, que va a hacer con diez

si le doy cinco usted se los gasta
                                 Em
tome estos cuatro y me devuelve tres

si hubiera azucar le hacia tinto
                          B7
pero como hago si no hay café

si hubiera vino le daba un trago 
                     Em   E7
pero la copa ya la quebré
 

   Am
a bueno sueño pa' dormir contigo
                            Em
si estoy solito, no esta mi mama
                                B7
si hubiera almohada con mucho gusto
                          Em
pero pa' que si no tengo cama


     Am
\\ a bueno de eso pa' comer con esto
                          Em
como es de bueno eso con esto
                                   B7
si hubiera de eso yo comia con de esto
                                   Em
pero no hay de esto pa' comer con esto//
Suggest correction
Give kudos to tab author, rate the tab!
1 2 3 4 5
comments
print report bad tab
guest
You may want to rate the tab now too:
select rating
Wanna post a correction for this tab? Suggest correction