Oops, an error
Loading. Please wait.

Almas Heridas Tab

26 views 3 this week
no commentswrite comment
1 2 3 4 5
3 more votes to show rating
add to favorites
launch autoscroll
font size
0
reset
how to read this tab
guitar tuner
×
Best way to learn
"Almas Heridas"
Autoscroll
slow
fast
+/-
esc
set tempo
stop
INTRO

1|---------------10-10-8--8--7/8--8---10-10-8--8--7/8--8----------
2|---------------12-12-10-10-8/10-10--12-12-10-10-8/10-10---------
3|--8-10-11-8-10--------------------------------------------------
4|--9-11-12-9-11--------------------------------------------------


1|--8--8--7-7-5/7-7---12-12-10-10--8/10-10--12-12-10-10--8/10-10--
2|--10-10-8-8-7/8-8---13-13-12-12-10/12-12--13-13-12-12-10/12-12--
3|----------------------------------------------------------------
4|----------------------------------------------------------------


1|--7-7-5-5-3/5-5-----7-8-7-----------------------12----------12--
2|--8-8-7-7-5/7-7-----------10-8----------------8----10-8---------
3|---------------------------------11-9----9-11------------11-----
4|----------------------------------------------------------------


                   Am           D
Porque estas tan triste y sola
               G       Em
mejor hablame de ti
                    Am 
dime porque estas llorando
   D                 Em
y porque ya no eres feliz

                            LOS MISMOS ACORDES
Dijo que un amor tenia
muy dificil de olvidar
era el dueño de su vida
pero no la quiere ya

Yo yambien estoy muy triste
MI amor me AbanDOno
hoy la vi que caminaba
con aquel que fue su amor

El me dijo que la amaba
desde mucho tiempo atras
dijo que iban a casarse
y que no lo buscara mas


                   Am    D
Somos dos almas heridas
               G    Em
condenadas al dolor
                     Am    D
lastimaron nuestras vidas
          B7      Em
ellos dos, ellos dos


                     Am    D
De nuestras almas heridas
             G           Em
no tuvieron compasion
                  Am    D
ellos si seran felices
       B7          Em
pero no, nosotros no


INTRO


Somos dos almas heridas.........
Suggest correction
Give kudos to tab author, rate the tab!
1 2 3 4 5
comments
print report bad tab
guest
You may want to rate the tab now too:
select rating
Wanna post a correction for this tab? Suggest correction