Oops, an error
Loading. Please wait.

Golpe, Ritmo & Locura Bass

8 views 1 this week
no commentswrite comment
1 2 3 4 5
3 more votes to show rating
add to favorites
launch autoscroll
font size
0
reset
guitar tuner
Autoscroll
slow
fast
+/-
esc
set tempo
stop
INTRO:
G---------------------------------------------------
D---------------------------------------------------
A-3-5-7-8-----5-----8-----5-----3-5-7-8-------------
E---------------------------------------------------


ESTROFAS:
la fiesta acaba de empezar y el ritmo hace mover las caderas
G------------------------------------------------------------
D------------------------------------------------------------
A--8-----8-7-5----5-----5-7-8-----8-----8-7-5----5-----5-7-8-
E----8-8------------5-5-------------8-8------------5-5-------

hoy no vino gente aburrida, menos mal, menos mal
G------------------------------------------------------------
D------------------------------------------------------------
A--8-----8-7-5----5-----3-5-3-3-3-3-3-3-3-3-1-1-1-1-1--------
E----8-8------------5-5--------------------------------------


CORO:
Vamos a bailar!  aaa bailar        Vamoa a bailar!  a bailar
G-------------------------------------------------------------
D-------------------------------------------------------------
A--8-8-8-8-8-8-8-8--5---3-5---3-8-8-8-8-8-8-8-8--5---3-5--3---
E---------------------5-----5------------------------5-----5--

Vamos a bailar!   a bailar     Vamos a bailar! a bailar
G-------------------------------------------------------------
D-------------------------------------------------------------
A--8-8-8-8-8-8-8-8--5---3-5---3-8-8-8-8-8-8-8-8--------5-7-8-
E---------------------5-----5-------------------5-7-8-8-------


BRIDGE:
G-------------------------------------------------------------
D-------------------------------------------------------------
A--8--6-8---6-5---3-5---3----8--6-8---6-5---3-5---3-----------
E----8----8-----5-----5--------8----8-----5-----5-------------

G-------------------------------------------------------------
D-------------------------------------------------------------
A--8--6-8---6-5---3-5---3----8--6-8---6----------5-7-8--------
E----8----8-----5-----5--------8----8----5-7-8-8--------------

OUTRO:
G--------------------------
D--------------------------
A--8---8-7--5---3-5--------
E----8--------5------------(x4)


--------------------------------
asi va el bajo de toda la canción
espero les salga bien, es super
bueno y no es complicado pero tienen
que tocarlo con la canción... saludos
a mi madre y a los hardmods de chile
ojala les sirva, cualquier duda o
reclamo métanselos en el kelo69@
ahi los recivo CHAOOOOOOOOOO
--------------------------------
Suggest correction
Give kudos to tab author, rate the tab!
1 2 3 4 5
comments
print report bad tab
guest
You may want to rate the tab now too:
select rating
Wanna post a correction for this tab? Suggest correction