Oops, an error
Loading. Please wait.

Vamos A La Ruta Chords

12 views 1 this week
no commentswrite comment
1 2 3 4 5
3 more votes to show rating
add to favorites
launch autoscroll
font size
0
reset
transpose
0
reset
simplify chords
display chords
guitar tuner
Autoscroll
slow
fast
+/-
esc
set tempo
stop
Help us to improve Ultimate-Guitar.com Take our survey!
×
Intro riff Sobre: Bb5 C5

    C5
    Voy manejando mi coche
F5 C5                 riff1
    camino por la ciudad
   C5                      F5 C5
    día a día, noche a noche
                          Riff 2
    y no te puedo encontrar.-


G
Piso más fuerte el acelerador

voy llegando al límite de esta ciudad
F                  G    riff 1
me voy de acá con vos...

C5  Bb5        C5
Oh! vamos a la ruta,
C5  Bb5        C5
Oh! vamos a la ruta.-

No te preocupes, nena,
yo te voy a rescatar
me paso por tu casa
dejá una carta a tu mamá.-

Piso más fuerte...

Oh! vamos...
Oh! juntos en la ruta

Prendo la radio y suena
puro rock and roll
ya nos vamos, nena
a pasear los dos.-

Piso más fuerte...

Oh! vamos...
oh! vamos...


Riff intro

E---------------------------------------
B---------------------------------------
G-----6-8-9----6-----6----6-----6-4-----
D-5-7-------5-7--5-7--5-7---5-7-----7-5-
A---------------------------------------
E---------------------------------------

Riff 1
E-----------------------
B-----------------------
G-----------------------
D-----------------------
A-----3-5-6-----3-------
E--3-5------3-5---------

Riff 2
E-----------------------
B-----------------------
G--3--------------------
D----5-3----------------
A--------5-4-3----------
E--------------6-3------
Suggest correction
Give kudos to tab author, rate the tab!
1 2 3 4 5
comments
print report bad tab
guest
You may want to rate the tab now too:
select rating
Wanna post a correction for this tab? Suggest correction