Oops, an error
Loading. Please wait.

Anna Julia Tab

version 1
version 1

Whole song

Interactive

274 views 1 this week
1 commentread comment
1 2 3 4 5
please rate
add to favorites
launch autoscroll
font size
0
reset
how to read this tab
guitar tuner
Autoscroll
slow
fast
+/-
esc
set tempo
stop
Help us to improve Ultimate-Guitar.com Take our survey!
×
Author
First, I'm going to show the chords, and the tablature for the solo. And then, 
i'll explain where the chords fit, and where the solo must be.
Thanks.

Então, eu vou mostrar os acordes, e a tablatura do solo, e depois eu vou mostrar 
as letras, onde os acordes vão se encaixar, e onde o solo vai estar.
Obrigado.


Chords:  E      C#m    G#m   A    B
e|-------0------4------4-----0----2-----------------------------------------|
B|-------0------5------4-----2----4-----------------------------------------|
G|-------1------6------4-----2----4-----------------------------------------|
D|-------2------6------6-----2----4-----------------------------------------|
A|-------2------4------6-----0----2-----------------------------------------|
E|-------0-------------4----------------------------------------------------|

Solo:   
       2X
  |--------------|
e|------------------1212121412~1212121412-----------------------------------|
B|-55575~-55575--------------------------12~-----------5-4------------------|
G|-------------4-------------------------------------------4-6-4---4~-------|
D|---------------------------------------------------------------7----------|
A|-------------------------------------------12\-4646-----------------4646--|
E|--------------------------------------------------------------------------|

e|12-11---------1112141414141414~-------------------------------------------|
B|------12-14~14------------------------------------------------------------|
G|--------------------------------------------------------------------------|
D|--------------------------------------------------------------------------|
A|--------------------------------------------------------------------------|
E|--------------------------------------------------------------------------|


Song:

  E    C#m    Em   C#m

  E            C#m            G#m
  Quem te vê passar assim por mim
      A        B     E 
  Não sabe o que é sofrer.
          C#m      G#m      A         B
  Ter que ver você assim, sempre tão linda.
E              C#m        G#m       A     B     E 
  Contemplar o sol do teu olhar, perder você no ar
         C#m         G#m
  Na certeza de um amor
  A     B     C#m
  me achar um nada, 
                   G#m
  Pois sem ter teu carinho
                 A
  eu me sinto sozinho
                 B 
  eu me afogo em solidão...
          E   A  B
  Oh Anna Juliaaaaa (2x)
  E            C#m       G#m   A     B      E 
  Nunca acreditei na ilusão de ter você pra mim.
          C#m         G#m     A     B  
  Me atormenta a previsão do nosso destino.
  E             C#m          G#m
  Eu passando o dia a te esperar,
    A      B    E 
  você sem me notar.
          C#m       G#m  A        B            C#m
  Quando tudo tiver fim, você vai estar com um cara,
                G#m
  Um alguém sem carinho.
                 A
  Será sempre um espinho
                B
  dentro do meu coração.
          E   A  B
  Oh Anna Juliaaaaa (2x)

   {Solo}
  
  C#m       G#m       A           B
  Sei que você já não quer o meu amor,
  C#m       G#m       A        B
  Sei que você já não gosta de mim,
  C#m               G#m        A           B
  Eu sei que eu não sou quem você sempre sonhou,
  C#m              G#m         A           B
  Mas vou reconquistar o seu amor todo pra mim.
        E   A  B
Oh Anna Juliaaaaa (3x)
        E      A      B
Oh Anna Julia, Julia, Julia
      E 
ouououou!
Suggest correction
Give kudos to tab author, rate the tab!
1 2 3 4 5
comments
print report bad tab
1 comment total.
0 reply
Gotardo 71 wrote on April 15 2013, 08:07 pm

I'm sorry, my mistake, instead of Em, it's E.

guest
You may want to rate the tab now too:
select rating
Wanna post a correction for this tab? Suggest correction