Oops, an error
Loading. Please wait.

Cade Teu Suim Chords

91 views 3 this week
no commentswrite comment
1 2 3 4 5
please rate
add to favorites
launch autoscroll
font size
0
reset
transpose
0
reset
simplify chords
display chords
guitar tuner
Autoscroll
slow
fast
+/-
esc
set tempo
stop
Help us to improve Ultimate-Guitar.com Take our survey!
×
Author
Difficulty
novice
Intro: 

   Am        Bm7(b5) 3x  F°          Am 3x  
E|--0------------0-------4--4-5-7-4----0---|
B|--1------------3-------3-------------1---|
G|--2--2-4-5-2---2-------4-------------2---|
D|--2------------3-------3-------------2---|
A|--0------------2-------0-------------0---|
E|--0------------0-------0-------------0---|

or

   Am        Bm7(b5) 3x    F°
E|--0----------0-----------4-4-5-7-8-7-------|
B|--1----------3-----------3-----------------|
G|--2-2-4-5-2--2-----------4-----------------|
D|--2----------3-----------3-----------------|
A|--0----------2-----------0-----------3-2---|
E|--0----------0-----------0---------------3-|



( Am  Bm7(b5)  F°  Am )                                           
                                                                    
  Am
Cadê teu repi
     Bm7(b5)
Quem é teu padri
     F°
Onde é que tu to
   Am
Cadê teu suin
   Dm7       G7 
Guitarra não po  
  C7+(9)  Bm4
Desista mole
     F°         E
Quem é que te indi
  Am
Cadê teu suin

             Am
Com que sobreno
  Bm7(b5)
Melhor ir sain
    F°
Dou nem mais minu
   Am
Tô nem mais 
      Dm7     G7
Ainda tem a cora
   C7+(9)   Bm4
Gentinha atrevi
   F°     E
Da cá sua vi
   Am
Da cá seu suin
F7+  G#7
Guilhotina?
C7+               A7
Eu que controlo o meu guidom
F7+        G#7
Com ou sem suin
F7+        F°
Com ou sem suin
Dm7         G7
Com ou sem suin

   Am
Guichê só de ven
   Bm7(b5)
Da lá toma no
  F°
Tamanha revan
  Am
Cheio de vingan
   Dm7     G7
Santinha cecili
  C7+(9)      Bm4
Andou me esquecen
    F°       E
Dou rima por p
       Am
Hão de ter o suin


Am
Acerta esse tom
Bm7(b5)
Zera essa reza 
  F°
Aumenta o vo
      Am
Calma com o andamen
   Dm7    G7
To insatisfei
  C7+(9)   Bm4
Tomara que venh
  F°     E
Aquele refr
       Am
Hão de ter o suín
Suggest correction
Give kudos to tab author, rate the tab!
1 2 3 4 5
comments
print report bad tab
guest
You may want to rate the tab now too:
select rating
Please do not post tabs as comments. Select "correction" instead!