Oops, an error
Loading. Please wait.

De Onde Vem A Calma Tab

187 views 1 this week
no commentswrite comment
1 2 3 4 5
please rate
add to favorites
launch autoscroll
font size
0
reset
how to read this tab
guitar tuner
Tab Pro tools
  • play this tab
  • loop segment
  • change instrument
  • show fretboard
  • metronome
×
Best way to learn
"De Onde Vem A Calma"
Autoscroll
slow
fast
+/-
esc
set tempo
stop
Contributor
 A
De onde vem a calma daquele cara?
A7                           D
Ele não sabe ser melhor, viu?
 A
Como não entende de ser valente
A7                     D
ele não sabe ser mais viril
             Bm     E
Ele não sabe não, viu?
                  A   F#m
As vezes dá como um frio
            Bm         E
É o mundo que anda hostil
 E                   A     ( A7+ A )
O mundo todo é hostil 

 A
De onde vem o jeito tão sem defeito
A7                         D
que esse rapaz consegue fingir?
 A
Olha esse sorriso tão indeciso
A7                         D
Está se exibindo pra solidão
               Bm     E
Não vão embora daqui
 E              A       F#m
Eu sou o que vocês são
 F#m          Bm
Não solta da minha mão
 E
Não solta da minha mão

(ponte 2x)

E|-----------------------------|
B|-----------------------------|
G|-9s11--11-11-11--9-----------|
D|-9s11--11-11-11--9--7--7--7--|  (2x)
A|-7s9----9--9--9--7--7--7--7--|
E|--------------------5--5--5--|



E|----------------------------------------|
B|----------------------------------------|
G|--4--4-4--6-7--7---7--7-7-8-9--9-9-9-9--|
D|--4--4-4--6-7--7---7--7-7-8-9--9-9-9-9--| (2x)
A|--2--2-2--4-5--5---5--5-5-6-7--7-7-7-7--|
E|----------------------------------------|


(ponte 2 - 4x)

E|----------14------------|
B|-------------14----14---|
G|------14--------14------|
D|------------------------|
A|--12--------------------|
E|------------------------|


 A          G#º
Eu não vou mudar não
      F#m
Eu vou ficar são
         D   Bm
Mesmo se for só,
E       A
não vou ceder
 A              G#º
Deus vai dar aval sim,
 F#m
o mal vai ter fim
 Bm                 E
e no final assim calado
 E          Bm          E            A
eu sei que vou ser coroado rei de mim

(solo)

    A                          D          A                    D
E|--9-9----7---10-9-7---------10~~~~~-----9-9---7---10-9-7------------|
B|--------------------10--7---------------------------------10--7~~~~-|
G|--------------------------------------------------------------------|
D|--------------------------------------------------------------------|
A|--------------------------------------------------------------------|
E|--------------------------------------------------------------------|


             Bm                  E        Bm                 E                    A
E|----7--9------10---9-10-9-7-----7-------10-9-10-9-7----7---12-10-9-7---10-9-7--------|
B|-7--------7------------------10----7----------------10------------------------8~~--9-|
G|-------------------------------------------------------------------------------------|
D|-------------------------------------------------------------------------------------|
A|-------------------------------------------------------------------------------------|
E|-------------------------------------------------------------------------------------|


(final)
E|--------------------------------|
B|-----5-7-5---------5-7-5--------|
G|---6--------6----6-------7-6-7--|
D|-7-------------7----------------|
A|--------------------------------|
E|--------------------------------|
comments
We did not receive enough feedback on this tab! Please rate:
print report bad tab
1 2 3 4 5
I want to post or [tab]
guest
You may want to rate the tab now too:
select rating
Please do not post tabs as comments. Select "correction" instead!