Oops, an error
Loading. Please wait.

Fingi Na Hora Rir Bass Tab

10 views 1 this week
no commentswrite comment
1 2 3 4 5
3 more votes to show rating
add to favorites
launch autoscroll
font size
0
reset
guitar tuner
Autoscroll
slow
fast
+/-
esc
set tempo
stop
Help us to improve Ultimate-Guitar.com Take our survey!
×
Author
Difficulty
novice
Tuning :

G
D
A
D#


[Intro]
G |---------------|---------------|---------------|---------------| (x2)
D |---------------|---------------|---------------|---------------|
A |---------------|---------------|---------------|---------------|
D#|0-0-0-8-8-8-8-8|5-5-5-7-7-7-7-7|0-0-0-8-8-8-8-8|5-5-5-7-7-7-7-7|

G |---------------|---------------|---------------|---------------| (x2)
D |---------------|---------------|---------------|---------------|
A |---------------|---------------|---------------|---------------|
D#|0-0-0-0-8-8-8-8|5-5-5-5-7-7-7-7|0-0-0-0-8-8-8-8|5-5-5-5-7-7-7-7|

[Verse 1]
G |----------------|----------------|----------------|----------------| (x2)
D |----------------|----------------|----------------|----------------|
A |----------------|----------------|----------------|----------------|
D#|0---8-----------|5---7-----------|0---8-----------|5---7-----------|

G |----------------|----------------|----------------|----------------|
D |----------------|----------------|----------------|----------------|
A |----------------|----------------|----------------|----------------|
D#|3---------------|6---6-----------|1---1-----------|0---------------|

[Chorus]
G |---------------|---------------|---------------|---------------| (x2)
D |---------------|---------------|---------------|---------------|
A |---------------|---------------|---------------|---------------|
D#|0-0-0-0-8-8-8-8|5-5-5-5-7-7-7-7|0-0-0-0-8-8-8-8|5-5-5-5-7-7-7-7|

G |-----------|-----------|-----------|-----------|
D |-----------|-----------|-----------|-----------|
A |-----------|-----------|-----------|-----------|
D#|3--3--3--3-|6--6--6--6-|1--1--1--1-|0----------|

[Bridge]
G |-----------|---------|-----------|---------|
D |6------6---|---------|6------6---|---------|
A |-----6---6-|4------6-|-----6---6-|4------6-|
D#|-----------|---------|-----------|---------|

G |----------------|----------------|----------------|----------------|----------------|---------------|
D |----------------|----------------|----------------|----------------|----------------|---------------|
A |----(guitar)----|----(guitar)----|----(guitar)----|----(guitar)----|-----(rest)-----|----(piano)----|
D#|----------------|----------------|----------------|----------------|----------------|---------------|

G |---------------|----------------|---------------|---------------|
D |---------------|----------------|---------------|---------------|
A |-(guitar,drum)-|----(guitar)----|-(guitar,drum)-|-(guitar,drum)-|
D#|---------------|----------------|---------------|---------------|

G |---------------|---------------|---------------|---------------|
D |---------------|---------------|---------------|---------------|
A |-(guitar,drum)-|-(guitar,drum)-|-(guitar,drum)-|-(guitar,drum)-|
D#|---------------|---------------|---------------|---------------|

[Interlude]
G |---------------|---------------|---------------|---------------| (x2)
D |---------------|---------------|---------------|---------------|
A |---------------|---------------|---------------|---------------|
D#|0-0-0-0-8-8-8-8|5-5-5-5-7-7-7-7|0-0-0-0-8-8-8-8|5-5-5-5-7-7-7-7|

[Verse 2]
G |---------------|---------------|---------------|---------------| (x2)
D |---------------|---------------|---------------|---------------|
A |---------------|---------------|---------------|---------------|
D#|0-0-0-8-8-8-8-8|5-5-5-7-7-7-7-7|0-0-0-8-8-8-8-8|5-5-5-7-7-7-7-7|

G |----------------|----------------|----------------|----------------|
D |----------------|----------------|----------------|----------------|
A |----------------|----------------|----------------|----------------|
D#|3---------------|6---6-----------|1---1-----------|0---------------|

[Chorus]
G |---------------|---------------|---------------|---------------| (x2)
D |---------------|---------------|---------------|---------------|
A |---------------|---------------|---------------|---------------|
D#|0-0-0-0-8-8-8-8|5-5-5-5-7-7-7-7|0-0-0-0-8-8-8-8|5-5-5-5-7-7-7-7|

G |-----------|-----------|-----------|-----------|-----------|
D |-----------|-----------|-----------|-----------|-----------|
A |-----------|-----------|-----------|-----------|-----------|
D#|3--3--3--3-|6--6--6--6-|1--1--1--1-|0----------|-----------|

[Bridge]
G |------12h13p12-|--------------------|------12h13p12-|--------------------| 
D |---10----------|13-11h13p11--11-----|---10----------|13-11h13p11---------|
A |11-------------|------------------10|11-------------|------------------10|
D#|---------------|--------------------|---------------|--------------------|

G |------12h13p12-|--------------------|------12h13p12-|------------|------------| 
D |---10----------|13-11h13p11--11-----|---10----------|13-11h13p11-|------------|
A |11-------------|------------------10|11-------------|------------|------------|
D#|---------------|--------------------|---------------|------------|------------|

G |-----------|---------|-----------|---------|
D |6------6---|---------|6------6---|---------|
A |-----6---6-|4------6-|-----6---6-|4------6-|
D#|-----------|---------|-----------|---------|

G |-----------|-----------|-----------|---------|---------|---------|
D |--5--------|3------3/5-|--5--------|3--------|---------|---------|
A |3---3------|-----------|3---3------|---------|4--------|6--------|
D#|-----------|-----------|-----------|---------|---------|---------|

[Interlude]
G |--------------|--------------|---------------|---------------| 
D |--------------|--------------|---------------|---------------|
A |---(guitar)---|---(guitar)---|-(guitar,drum)-|-(guitar,drum)-|
D#|--------------|--------------|---------------|---------------|

G |---------------|---------------|---------------|---------------| (x3)
D |---------------|---------------|---------------|---------------|
A |-(guitar,drum)-|-(guitar,drum)-|-(guitar,drum)-|-(guitar,drum)-|
D#|---------------|---------------|---------------|---------------|

[Outro]
G |---------------|---------------|---------------|---------------| (x4)
D |---------------|---------------|---------------|---------------|
A |---------------|---------------|---------------|---------------|
D#|0-0-0-0-8-8-8-8|5-5-5-5-7-7-7-7|0-0-0-0-8-8-8-8|5-5-5-5-7-7-7-7|

G |----------------|
D |----------------|
A |6---------------|
D#|----------------|



*******************************

| / slide up
| h hammer-on
| p pull-off

******************************* 
Suggest correction
Give kudos to tab author, rate the tab!
1 2 3 4 5
comments
print report bad tab
guest
You may want to rate the tab now too:
select rating
Wanna post a correction for this tab? Suggest correction