Oops, an error
Loading. Please wait.

O Vencedor Tab

version 1
version 1

Whole song

Interactive

302 views 1 this week
no commentswrite comment
1 2 3 4 5
please rate
add to favorites
launch autoscroll
font size
0
reset
how to read this tab
guitar tuner
Tab Pro tools
  • play this tab
  • loop segment
  • change instrument
  • show fretboard
  • metronome
Autoscroll
slow
fast
+/-
esc
set tempo
stop
Contributor
Intro: G5  F7M/C

Solo Intro:

E|---------------------------------------------------|
B|-12--12----10----10----13----13----12-10-8---------|
G|---------------------------------------------------|
D|-12--12----10-10-10----14-14-14----12-10-9---------|
A|---------------------------------------------------|
E|---------------------------------------------------|



E|---------------------------------------------------|
B|-6/8\--6--6--5-5--3-3------------------------------|
G|-----------------------5--4------------------------|
D|-7/9\--7--7--5-5--4-4------------------------------|
A|-----------------------7--5------------------------|
E|---------------------------------------------------|



E|---------------------------------------------------|
B|---------12----12---13-13-13---------17-17\--------|
G|-------------------------------x-x-----------------|
D|-10/12---12-12-12---14-14-14---x-x---17-17\--------|
A|---------------------------------------------------|
E|---------------------------------------------------|



E|---------------------------------------------------|
B|-15-13-12--10/12\--10-10--8-8--5--6-6--6/-7--------|
G|---------------------------------------------------|
D|-15-14-12--10/12\--10-10--9-9--5--7-7--7/-8--------|
A|---------------------------------------------------|
E|---------------------------------------------------|


Intro: G5 F7M/C

G5                F7M/C        G5
   Olha lá, quem vem do lado oposto
        F7M/C      G5
Vem sem gosto de viver
               F7M          G5
Olha lá que os bravos são escravos
       F7M             G5
Sãos e salvos de sofrer
            F7M          G5
Olha lá quem acha que perder
        F7M         G5
É ser menor na vida
             F5M          G5
Olha lá quem sempre quer vitória
           F7M         Dm7
E perde a glória de chorar
               Em7     Dm7             Em7  Ebm7  Dm7
Eu que já não quero mais   ser um vencedor
             Em7      F         G    C
Levo a vida devagar pra não faltar amor
Bb5(9)          C  Bb5(9)            C
       Olha você          e diz que não
Bb5(9)              C   Bb5(9)        Am7  D5(9)
       Vive a esconder         o coração

(  Am7   D5(9) )

  Am7      D5(9)    Am7
Não faz isso, amigo
      D5(9)       Am7
Já se sabe que você
      D5(9)      Am7
Só procura abrigo
        D5(9) B7      E
Mas não deixa ninguém ver
          A  ( G5  A )
Por que será?

Em7                F#m7
    Eu que já não sou assim
Em7              F#m7   Fm7  Em7
    Muito de ganhar
                      F#m7
Junto as mãos ao meu redor
 G5        A    G5       A
Faço o melhor que sou capaz
 G5       A      D  C
Só pra viver em paz
(D  C)

Primeira Parte:

E|---------------------------------------------------|
B|-8--10-11-12--10/12\--10----10---------------------|
G|---------------------------------------------------|
D|-9--10-11-12--10/12\--10-10-10-10------------------|
A|---------------------------------------------------|
E|---------------------------------------------------|



E|---------------------------------------------------|
B|-13----13---12-10-8---6/8\--6--6--5-5--3-3---------|
G|--------------------------------------------5--4---|
D|-14-14-14---12-10-9---7/9\--7--7--5-5--4-4---------|
A|--------------------------------------------7--5---|
E|---------------------------------------------------|



E|---------------------------------------------------|
B|---------12----12---13-13-13---------17-17\--------|
G|-------------------------------x-x-----------------|
D|-10/12---12-12-12---14-14-14---x-x---17-17\--------|
A|---------------------------------------------------|
E|---------------------------------------------------|



E|---------------------------------------------------|
B|-15-13-12--10/12\--10-10--8-8--5--6-6--6/-7--------|
G|---------------------------------------------------|
D|-15-14-12--10/12\--10-10--9-9--5--7-7--7/-8--------|
A|---------------------------------------------------|
E|---------------------------------------------------|


Solo dos Metais na Primeira Parte:

E|---------------------------------------------------|
B|-----13--11-------13--15-------13--11---17--13--15-|
G|-12-----------12-----------12----------------------|
D|-----10---8-------10--12-------10---8---14--10--12-|
A|-10-----------10-----------10----------------------|
E|---------------------------------------------------|


Segunda Parte:

E|---------------------------------------------------|
B|-----13\--12\--7---5/7--5-5---1--3-5-3-------------|
G|---------------------------------------------------|
D|-14----\--12\--7---5/7--5-5---2--4-5-4-------------|
A|---------------------------------------------------|
E|---------------------------------------------------|



E|---------------------------------------------------|
B|-----13\--12\--7---8h10--10------------------------|
G|---------------------------------------------------|
D|-14----\--12\--7---9/10--10------------------------|
A|---------------------------------------------------|
E|---------------------------------------------------|



E|---------------------------------------------------|
B|-----13\--12\--7---5/7--5--------------------------|
G|---------------------------------------------------|
D|-14----\--12\--7---5/7--5--------------------------|
A|---------------------------------------------------|
E|---------------------------------------------------|


Terceira Parte:
Solos:

E|---------------------------------------------------|
B|---10-8-7------------------------------------------|
G|-9--------9-7-9-6---6------------------------------|
D|------------------7---9----9-7---------------------|
A|------------------------10-------------------------|
E|---------------------------------------------------|



E|------7-10p9-10--9---9----7------------------------|
B|---10------------------10---10-8-10-7-10-10/12~----|
G|-9-------------------------------------------------|
D|---------------------------------------------------|
A|---------------------------------------------------|
E|---------------------------------------------------|


Solo Final:

E|---------------------------------------------------|
B|-10-8-7---7-8---7-8-----7-------7-------7----------|
G|--------9-----9-----9-----7---7---7---7---7--------|
D|----------------------------7-------7--------------|
A|---------------------------------------------------|
E|---------------------------------------------------|


E|---------------------------------------------------|
B|-5-------5-------5---------------------------------|
G|---5---5---5---5---7-------------------------------|
D|-----5-------5-------------------------------------|
A|---------------------------------------------------|
E|---------------------------------------------------|
comments
We did not receive enough feedback on this tab! Please rate:
print report bad tab
1 2 3 4 5
I want to post or [tab]
guest
You may want to rate the tab now too:
select rating
Please do not post tabs as comments. Select "correction" instead!