Oops, an error
Loading. Please wait.

Algo Tonto chords

27 views 1 this week
no commentswrite comment
1 2 3 4 5
3 more votes to show rating
add to favorites
×
Save as Personal and add changes to this tab that will be seen only by you. Learn more ›
×
You can save this tab as Personal to edit and correct it or add notes. All changes will be seen only by you. Learn more »
launch autoscroll
font size
0
reset
transpose
0
reset
simplify chords
display chords
guitar tuner
edit
Autoscroll
slow
fast
+/-
esc
set tempo
stop
Strumming
There is no strumming pattern for this song yet. and get +5 IQ
Armonizada en Mi mayor

              A            B7               E
E|-0-0-4--5s7-7-5-4-4h5----5s7-7-5-4-2-2p4--0-|
B|--------------------------------------------|
G|--------------------------------------------|
D|--------------------------------------------|
A|--------------------------------------------|

                        E
E|-------------------------------------------|
B|-0--0h2--0p2-------------------------------|
G|--------------1-------1--------------------|
D|--------------2--2s4--2--------------------|
A|----------------------2--------------------|

E
Yo se que al recordar esta canción
                   B7
mi corazón late siempre es por tí
B7
yo quize hacer de ti mi gran amor
                      E
pero jamas tu te creíste de mí

 E
jamás pensaste que un amor así
                         A
podría a llegar hacerte muy feliz
E                          B7
y todas tus palabras eran tontas
                     E
al hablar sobre el amor

E
pude ver en tus ojos la mentira
         E7             B7
que expresabas en tu corazón
  F#
y tu creíste que algun día te reías
               B7
de mi loco y tonto amor

E
Ahora busco en el mundo un amor
                    A
más puro y creo ya lo encontre
E                              B7
es alguien que no dice cosas tontas
             E
al hablar sobre el amor

Requinto

   E                       B7
E|----(7--9--11-12-11-7-11--9-)---------|
B|-9--(9--10-12-14-12-9-12--10)---------|
G|-9------------------------------------|
D|--------------------------------------|
A|--------------------------------------|

                            E
E|-5--(9--11-12-11-9--7-11--7)----------|
B|-7--(10-12-14-12-10-9-12--9)----------|
G|--------------------------------------|
D|--------------------------------------|
A|--------------------------------------|

 E
jamás pensaste que un amor así
                         A
podría a llegar hacerte muy feliz
E                          B7
y todas tus palabras eran tontas
                     E
al hablar sobre el amor


E                              B7
es alguien que no dice cosas tontas
             E           C
al hablar sobre el amor
     E         C      E         C       E
E tonto amor,   E tonto amor,    MI tonto amor

escuchen muy bien la cancion, para uqe se guien en el requinto,
y los cambios,
Las partes que van entre parentesis en el requito se tocan varias veces
para arriba y para abajo como si fuera una mandolina.
cualquier duda o comentario escribanme a mi correo

            
            
Suggest correction
Creating personal tab
Creating personal tab
You can edit any tab online and save it as your Personal.

You can edit, replace or remove any tab part or add personal notes – all changes will be seen only by you.

Personal tabs can be accessed anytime from any device, even offline.
Learn more »
Give kudos to tab author, rate the tab!
1 2 3 4 5
comments
print report bad tab
guest
Wanna post a correction for this tab? Suggest correction