Oops, an error
Loading. Please wait.

Se Fue tab

52 views 1 this week
no commentswrite comment
1 2 3 4 5
3 more votes to show rating
add to favorites
×
Save as Personal and add changes to this tab that will be seen only by you. Learn more ›
×
You can save this tab as Personal to edit and correct it or add notes. All changes will be seen only by you. Learn more »
launch autoscroll
font size
0
reset
how to read this tab
guitar tuner
edit
Autoscroll
slow
fast
+/-
esc
set tempo
stop
Esta es mi segunda transcripción y la quiero dedicar a:

             'Jessica Carrasco León'
          
Antes de empezar creo que es pertinente hacer algunas aclaraciones: 

1.- Esta canción suena mejor sise toca con 2 guitarras, una eléctrica y
una acústica o electroacústica.

2.- La eléctrica hace el intro, el solo y el requinto en toda la canción 

3.- Y la acústica el acompañamiento.


Nota: Para la guitarra eléctrica; los acordes que aparecen marcados con
asterisco(*) son arpegiados con el mismo rasgueo que en el intro (Nunca 
cambia la secuencia). Y los acordes que aparecen sin asterisco se rasguen 
igual que con la acústica.

      ·      Se recomienda escuchar la canción para saber con exactitud como se 
      hace el rasgueo y la velocidad con que se deben hacer.
 
Empezamos:


Intro...

(*Am)x2 y se queda en Am 

               *G
Cuando voy caminando
                 *F
pregunto, ¿que paso?
                   E7
con nuestro gran amor.


*Am                *G
Y mientras sigo pensando
                     *F
que ella siempre me quiso
                E7     *A
tan fuerte como yo


                         *F#m
Yo no sé porque se fue
                     *A
pero se alejo de mi
                           *F#m
quiero que este junto a mi

y donde mi sufrir. 


      A                    F#m
Que vuelva, oh we we we we vuelva
 A              F#m
sii we we we we we eella se fue
       *Bm           *E7
pero se fue, no se porque
        *A     *Bm          *A      E7
pero se fue, se se se se se see fue


--Solo de guitarra eléctrica--  
(Se acompaña con: Am, G, F, E7 )x2


- Requinto-  A                       F#m
             Yo no se porque se fue
                      A
pero se alejo de mi
                           F#m
quiero que esté junto a mi

y calme mi sufrir

     A                     F#m
Que vuelva, ah we we we we vuelva
  A                 F#m
sii we we we we  we eella se fue 
        *Bm           *E7
pero se fue, no se porque


             *A      *Bm          *A
pero se fue, se se se se se se  fue
    *Bm           *A
se se se se se se fue
    *Bm           *A
se se se se se se fue.....

-.-.-.-.-.-.-.-.-.-.-.-.-.-.-.-.-.-.-.-.-.-.-.-.-.-.-.-.-.-.-.-.-.-.-.-.-.-

Intro con guitarra eléctrica(*Es lo mismo con acústica pero no suena 
                              igual que con la eléctrica):

   Am
E|------------------|-------------------|
A|------------------|-------------------|
D|-7----------------|-7-----------------|
g|---5------5-----5-|---5-------5-----5-|
b|-----5---5----5---|-----5---5-----5---|
e|-------5----5-----|-------5-----5-----|


Solo de guitarra eléctrica:

           ^ = Deslizar
           . = Dejar de presionar la cuerda

E|---------------------------------------------------------------------------|
A|-------------------------------------------------------10-10---------------|
D|--------------------10-----------10----------------9-9-------9-9-----------|
g|------------------9------------9----9----------7-7---------------7-7-------|
b|-10-10-10-10-9-10------10-9-10--------10-8-7-8-----------------------6^8-8-|
e|---------------------------------------------------------------------------|


E|----------------------------------------------------------|
A|----------------------------------------------------------|
D|----------------------------------------------------------|
g|-------5-5---------5-5------------------------------------|
b|-6-5-6-----5^6-5-6-----5^6-6-5.-5.--5-5.--5-5-5-5-5.--5-5-|
e|----------------------------------------------------------|


E|---------------------------------------------------------------------------|
A|-------------------------------------------------------10-10---------------|
D|--------------------10-----------10----------------9-9-------9-9-----------|
g|-------------9------------9----9----------7-7---------------7-7-------|
b|-10-10-9-10------10-9-10--------10-8-7-8-----------------------6^8-8-|
e|---------------------------------------------------------------------------|


E|----------------------------------------------------------|
A|----------------------------------------------------------|
D|----------------------------------------------------------|
g|-------5-5---------5-5------------------------------------|
b|-6-5-6-----5^6-5-6-----5^6-6-5.-5.--5-5.--5-5-5-5-5.--5-5-|
e|----------------------------------------------------------|


Requinto: 


            ''' = Se rasguea hacia arriba y hacia abajo vairas veces
                  uniformemente lo más rápido posible.

E|---------------------------------------------|
A|---------------------------------------------|
D|---------------------------------------------|
g|---------------------------------------------|
b|---------------------------------------------|
d|--17'''--19--17--14'''-17'''--19--17--14'''--|
Suggest correction
Creating personal tab
Creating personal tab
You can edit any tab online and save it as your Personal.

You can edit, replace or remove any tab part or add personal notes – all changes will be seen only by you.

Personal tabs can be accessed anytime from any device, even offline.
Learn more »
Give kudos to tab author, rate the tab!
1 2 3 4 5
comments
print report bad tab
guest
Wanna post a correction for this tab? Suggest correction