Oops, an error
Loading. Please wait.

Bat Masterson tab

191 views 3 this week
no commentswrite comment
1 2 3 4 5
3 more votes to show rating
add to favorites
×
Save as Personal and add changes to this tab that will be seen only by you. Learn more ›
×
You can save this tab as Personal to edit and correct it or add notes. All changes will be seen only by you. Learn more »
launch autoscroll
font size
0
reset
how to read this tab
guitar tuner
edit
Autoscroll
slow
fast
+/-
esc
set tempo
stop
Empieza en G

   G                                      D
E|----------------------------------------------
B|---0---0--------------------0---0---1-0-------
G|-0---0---0---0------------0---0---0-----2-----
D|-----------2---0------------------------------
A|----------------------------------------------
   G             C             D            G
E|---------------0----------------------------------
B|---0---0-0-1-3--------1-0----------1-0------------
G|-0---0--------------------2------------2-0--------
D|----------------------------4---------------------
A|--------------------------------------------------

G
Cuando el oeste comenzó
                   D
vivió un tal Bat Masterson
G                    C
con su bombin y su bastón
         D           G
leyenda fue Bat Masterson

G
El mas veloz de todos fue
                 D
y al oeste conquistó
G                      C
con su pistola y su bastón
         D           G
leyenda fue Bat Masterson


G
Un caballero siempre fue
                       D
y al debil siempre protegío
G                 C
así vivío y así murío
         D         G
el legendario Masterson

  G(silbando)                      G(silbando)   D
E|------------------7---7---------|----------------8-8-7------|
B|----------------8---8---8---8---|----------------------10---|
G|--------------------------9---7-|---------------------------|
D|--------------------------------|---------------------------|
A|--------------------------------|---------------------------|
  G(silbando) C                                 D
E|----------------------------7-8-10-12-10-8-7----------------
B|---------------------7-8-10------------------10-------------
G|-----------------7-9----------------------------------------
D|--------------10--------------------------------------------
A|------------------------------------------------------------
             G                     G  un caballero......
E|-8-7-------7-7-7----|-------------------------|
B|-----10----8-8-8----|-------------------------|
G|--------------------|-------------------------|
D|--------------------|---0--2--4--5------------|
A|--------------------|-------------------------|

G
Un caballero siempre fue
                       D
y al debil siempre protegío
G                 C
así vivío y así murío
         D         G
el legendario Masterson
G                             G (silbando)
E|--------------------------------------------------|
B|---------------0---0------------------------------|
G|-------------0---0---0---0------------------------|
D|-0--2--4--5------------2--------------------------|
A|--------------------------------------------------|

                  D
E|---------------------------------------------------|
B|---0---0---1-0-------------------------------------|
G|-0---0---0-----2-----------------------------------|
D|---------------------------------------------------|
A|---------------------------------------------------|

   G             C              D             G
E|---------------0------------------------------------|
B|---0---0-0-1-3----------1-0----------1-0------------|
G|-0---0----------------------2-4----------2--0-------|
D|----------------------------------------------------|
A|----------------------------------------------------|

          D           G               D                G
E|-------------------------------------------0-------------|
B|--1-0--------1-0--------------1-0----------1-3---1---0---|
G|------2-4--------2--0-------------2-4--------4---2---0---|
D|---------------------------------------------------------|
A|---------------------------------------------------------|


Si tienen la canción a la mano se les va hacer bien facil,
la trascripcion esta completa, donde dice [silbando] es la
tonada que silban en la canción. En cada verso lo que se oye con
la guitarra es lo mismo del intermedio, acoplando se con lo que
se canta.
Espero que no tengan dudas, si las tienen escribanme al correo

martin_sc83@

            
            
Suggest correction
Creating personal tab
Creating personal tab
You can edit any tab online and save it as your Personal.

You can edit, replace or remove any tab part or add personal notes – all changes will be seen only by you.

Personal tabs can be accessed anytime from any device, even offline.
Learn more »
Give kudos to tab author, rate the tab!
1 2 3 4 5
comments
print report bad tab
guest
Wanna post a correction for this tab? Suggest correction