Oops, an error
Loading. Please wait.

En El Baile tab

16 views 1 this week
no commentswrite comment
1 2 3 4 5
3 more votes to show rating
add to favorites
×
Save as Personal and add changes to this tab that will be seen only by you. Learn more ›
×
You can save this tab as Personal to edit and correct it or add notes. All changes will be seen only by you. Learn more »
launch autoscroll
font size
0
reset
how to read this tab
guitar tuner
edit
Autoscroll
slow
fast
+/-
esc
set tempo
stop
C (4  tiempos)
  (arpegios)   C   Am   Dm   G

      C
¡A bailar!
Si tú tomas tu pareja y con la música  te animas a bailar   (pa pa uh wauh)
      F                                                       C
en el ambiente de la fiesta dando vueltas como un trompo te verás
                                                            (pa pa uh wauh)
G        F    C
oh oh oh oh   vamos a bailar

C
Vamos a bailar   oh nena   vamos a bailar
F                        C
vamos bailar   oh nena   vamos a bailar
G        F    C
oh oh oh oh   vamos a bailar

      C
Es un baile un movido y divertido para quien lo sabe hacer  (pa pa uh wauh)
  F                                              C
y saltando de ese modo solamente movimiento tú serás
                                                            (pa pa uh wauh)
G        F    C
oh oh oh oh   vamos a bailar    yeah yeah yeah   vamos ay


Puente, se repite toda la letra y termina con los arpegios.


Arpegios:

   C         Am        Dm         G
E|---------|---------|--------1-|---------|
B|-------1-|-------1-|------3---|---------|
G|-----0---|-----2---|----2-----|-------0-|
D|---2-----|---2-----|-3--------|-----0---|
A|-3-------|-0-------|----------|---2-----|
E|---------|---------|----------|-3-------|

Puente:

    C
E||------7-8-8-8-8-8-|------7-8-8-8-8-8-|-8--------------|-
B||-8-10-------------|-8-10-------------|---10-8-8-8---8-|-
G||------------------|------------------|------------9---|-
D||------------------|------------------|----------------|-
A||------------------|------------------|----------------|-
E||------------------|------------------|----------------|-

     F                                                  C
  E|--8-8--10-10-8-8--10-10-8-8--10-10-8-8--10-10-8-8-|--8---------------|
  B|-10-----------------------------------------------|-10-10-8-8-8----8-|
  G|--------------------------------------------------|----10-9-9-9--9-9-|
  D|--------------------------------------------------|-------------10---|
  A|--------------------------------------------------|------------------|
  E|--------------------------------------------------|------------------|

       G               F           C
    E|-10b12-|-10-8------|-----------|-----------|
    B|-------|------10-8-|-10-8------|-----------|
    G|-------|-----------|------10-8-|---------8-|
    D|-------|-----------|-----------|-10-8-10---|
    A|-------|-----------|-----------|-----------|
    E|-------|-----------|-----------|-----------|

            
            
Suggest correction
Creating personal tab
Creating personal tab
You can edit any tab online and save it as your Personal.

You can edit, replace or remove any tab part or add personal notes – all changes will be seen only by you.

Personal tabs can be accessed anytime from any device, even offline.
Learn more »
Give kudos to tab author, rate the tab!
1 2 3 4 5
comments
print report bad tab
guest
Wanna post a correction for this tab? Suggest correction