Oops, an error
Loading. Please wait.

Historia Al Sol tab

76 views 1 this week
no commentswrite comment
1 2 3 4 5
3 more votes to show rating
add to favorites
×
Save as Personal and add changes to this tab that will be seen only by you. Learn more ›
×
You can save this tab as Personal to edit and correct it or add notes. All changes will be seen only by you. Learn more »
launch autoscroll
font size
0
reset
how to read this tab
guitar tuner
edit
Autoscroll
slow
fast
+/-
esc
set tempo
stop
Disfruten este gran tema de los Huayra!


Intro: G  D  Em  Bm C  G  D

1---4/7----7-7-7---5-5---3-3----7-7-7---12-12-10-10--8---8--------
2---6/8----8-8-8---7-7---5-5----8-8-8---10-10-12-12--10--10-------
3-------------------------------------------------------------
4-----------------------------------------------------------------
5-----------------------------------------------------------------
6-----------------------------------------------------------------


1---8--8---12--12-10-10---8/10-----8/5----------------------------
2---10-10--12--14-12-12---10/12----10/7---------------------------
3-----------------------------------------------------------------
4-----------------------------------------------------------------
5-----------------------------------------------------------------
6-----------------------------------------------------------------

1-----------------------------------------------------------------
2---0-5-7-5-----------5-3-----------------------------------------
3-------------7-5-3-5---------------------------------------------
4-----------------------------------------------------------------
5-----------------------------------------------------------------
6-----------------------------------------------------------------


G                  D               Em
 Dicen que una historia puede estar
             Bm              C
donde menos uno piensa andar
             G               D
en la tarde mas inesperada que se va

G              D             Em
 Dicen que los ojos al pasar
           Bm                C
llevaran del sol la claridad
             G                  D
esa luz sagrada que jamás se perderá


C                              G
 Yo que en cada noche te he buscado
         Em                 D
 en el silencio me he encontrado
          C           D
 con el sonido de tu voz

G                         D
 Y  no te veré, voy a mirarte            /
                               Em        /
 no me hallarás, voy a encontrarte       /
              C             G     D      /
 pensando en nunca mas dejarte ir        /
G                              D         /
 Y si como un viento llega el frío       / ESTRIBILLO
                            E           /
 aquí mis brazos son tu abrigo           /
           C          G           D      /
 aquí mis manos te podrán cuidar         /
                                         /
Am7           C           D              /
 Porque mi camino se aclaró,             /
Am7           C            D             /
 desde que te vi ya soy mejor            /


Intro

G              D
 En éste incansable caminar,
Em               Bm
 van mis pasos ciegos de ansiedad,
C               G                       D
 como aquella luna por vencer la oscuridad..

G                D
 Y en tu pelo, noche y temporal,
Em             Bm
 en mis ojos tú y la claridad,
C                      G              D
 y sin darme cuenta cada vez me habitas mas..


G                         D
 Y  no te veré, voy a mirarte            /
                               Em        /
 no me hallarás, voy a encontrarte       /
              C             G     D      /
 pensando en nunca mas dejarte ir        /
G                              D         /
 Y si como un viento llega el frío       / ESTRIBILLO
                            Em           /
 aquí mis brazos son tu abrigo           /
           C          G           D      /
 aquí mis manos te podrán cuidar         /
                                         /
Am7           C           D              /
 Porque mi camino se aclaró,             /
Am7           C            D             /
 desde que te vi ya soy mejor            /

Bm   Em  C   D   Bm  Em  G D


C                              G
 Yo que en cada noche te he buscado
         Em                 D
 en el silencio me he encontrado
          C           D
 con el sonido de tu voz

G                         D
 Y  no te veré, voy a mirarte            /
                           Em        /
 no me hallarás, voy a encontrarte       /
              C             G     D      /
 pensando en nunca mas dejarte ir        /
G                                 D         /
 Y si como un viento llega el frío       / ESTRIBILLO
                            Em           /
 aquí mis brazos son tu abrigo           /
           C          G           D      /
 aquí mis manos te podrán cuidar         /
                                         /
Am7           C           D              /
 Porque mi camino se aclaró,             /
Am7           C            D             /
 desde que te vi ya soy mejor            /


G  D   Em   C   G  D        (POR 3)
Suggest correction
Creating personal tab
Creating personal tab
You can edit any tab online and save it as your Personal.

You can edit, replace or remove any tab part or add personal notes – all changes will be seen only by you.

Personal tabs can be accessed anytime from any device, even offline.
Learn more »
Give kudos to tab author, rate the tab!
1 2 3 4 5
comments
print report bad tab
guest
Wanna post a correction for this tab? Suggest correction