Oops, an error
Loading. Please wait.

Africa Paga Tab

version 1
version 1

Whole song

59 views 1 this week
no commentswrite comment
1 2 3 4 5
3 more votes to show rating
add to favorites
×
Save as Personal and add changes to this tab that will be seen only by you. Learn more ›
×
You can save this tab as Personal to edit and correct it or add notes. All changes will be seen only by you. Learn more »
save as personal
new!
launch autoscroll
font size
0
reset
how to read this tab
guitar tuner
Autoscroll
slow
fast
+/-
esc
set tempo
stop
+ Tabulados de made in spain!                   +
+ [                        +
+++++++++++++++++++++++++++++++++++++++++++++++++

Tabulado por: Jesus Santander Bermejo

                                   =========
                                   = INTRO =
                                   =========

ACORDES
  FA                  MIb                FA                 REb   DO

GUITARRA
E ------------------|------------------|------------------|------------------|
B ------------------|------------------|------------------|------------------|
G -2-2--2--6-7---2--|-0-----0----------|-2-2--2--6-7---2--|------------------|
D -3-3--3--3-3---3--|-1-----2----------|-3-3--3--3-3---3--|-3-----2----------|
A ------------------|------------------|------------------|-4-----3----------|
E -8-8--8--8-8---8--|-6-----7----------|-8-8--8--8-8---8--|-4-----3----------|       

BAJO
G ------------------|------------------|------------------|------------------|
D -0-------0-0---0--|------------------|-0-------0-0---0--|------------------|
A ------------------|-4-----3----------|------------------|-1-----0----------|
E ------------------|------------------|------------------|------------------|


                                     ============
                                     = PARTE A1 =
                                     ============
ACORDES
    DO                  LAm              DO                 MIm   

VOCAL
    1 Bus  que-un a cor   de                 per d¡  mi ban    da
    2 En   la-o   fi ci   na                de-a lis ta mien   to
    3 En   la-o   fi ci   na                de-a lis ta mien   to
E -----0----------0---|----------------|------0--3---0-----|---0-------------|
B ----------3-------1-|---1------------|----------------3--|-----------------|
G --------------------|----------------|-------------------|-----------------|

GUITARRA
E --------------------|----------------|-------------------|-----------------|
B -1-1----------------|----------------|-1-1---------------|-0-0--0-0-0-0----|
G -4-4----------------|-2-2--2-2-2-2---|-0-0---------------|-0-0--0-0-0-0----|
D -2-2----------------|-2-2--2-2-3-3---|-2-2---------------|-2-2--2-2-2-2----|
A --------------------|-3-3--3-3-3-2---|-------------------|-----------------|
E --------------------|----------------|-------------------|-----------------|       

BAJO
G --------------------|----------------|-------------------|-----------------|
D -2-2----------------|----------------|-2-2---------------|-----------------|
A --------------------|-3-3--3-3-3-3---|-------------------|-3-3--3-3-3-3----|
E --------------------|----------------|-------------------|-----------------|


                                     ============
                                     = PARTE A2 =
                                     ============
ACORDES
  DO                  LAm                DO                 MIm   

VOCAL
   1  el  cham pagne se   co                 fue m¡ des gra   cia
   2  A   fri  ca   pa    ga                 A  fri ca-es pe  ra
   3  un   mer   ce na   rio                "Gar gan ta se    ca"
E -----0----------0---|----------------|------0--3---0-----|---0-------------|
B ----------3-------1-|---1------------|----------------3--|-----------------|
G --------------------|----------------|-------------------|-----------------|

GUITARRA
E --------------------|----------------|-------------------|-----------------|
B -1-1----------------|----------------|-1-1---------------|-0-0--0-0-0-0----|
G -4-4----------------|-2-2--2-2-2-2---|-0-0---------------|-0-0--0-0-0-0----|
D -2-2----------------|-2-2--2-2-3-3---|-2-2---------------|-2-2--2-2-2-2----|
A --------------------|-3-3--3-3-3-2---|-------------------|-----------------|
E --------------------|----------------|-------------------|-----------------|       

BAJO
G --------------------|----------------|-------------------|-----------------|
D -2-2----------------|----------------|-2-2---------------|-----------------|
A --------------------|-3-3--3-3-3-3---|-------------------|-3-3--3-3-3-3----|
E --------------------|----------------|-------------------|-----------------|

                                     ============
                                     = PARTE A3 =
                                     ============
ACORDES
   FA                LAm            MIm            MIm7           REm7

VOCAL
    1 cual quier    de  ci  si¢n    es un sui  ci       dio  a    qu¡.
    2 tie nes un    hom bre mas     que ma ta  r        por       t¡.
    3 cual quier    de  ci  si¢n    es un sui  ci       dio  a    qu¡.
E -----1---1---1--|-0------------|---1--1--1----0-|-------------|------------|
B ----------------|----3---1-----|----------------|------3----1-|-0----------|
G ----------------|--------------|----------------|-------------|------------|

GUITARRA
E ----------------|--------------|----------------|-------------|------------|
B -1-1------------|--------------|-1---------1----|--1----------|------------|
G -2-2------------|------2----2--|-2---------2----|--2---2------|---0--0-0---|
D -7-7------------|------7----7--|-7---------7----|------2------|---2--2-2---|
A ----------------|--------------|----------------|-------------|------------|
E ----------------|--------------|----------------|-------------|------------|       

BAJO
G ----------------|--------------|----------------|-------------|-----0----0-|
D -0---0---0------|--------------|-0-0--0---------|-3-3-3-3---3-|---2--------|
A ----------------|-2--2-2-------|----------------|-------------|-3-----3----|
E ----------------|--------------|----------------|-------------|------------|


                                     ============
                                     = PARTE B1 =
                                     ============
ACORDES
   MIm7                  REm7             MIm7              REm7

VOCAL
       I  re  mos  jun       tos             dis pa ra  re      mos
E -----0--0---3--------|---------------|-----0--0---3----5-|----------------|
B ------------------2--|-----3---------|-------------------|----3-----------|
G ---------------------|---------------|-------------------|----------------|

GUITARRA
E ---------------------|---------------|-------------------|------1---------|
B ---------------3-----|---------------|---------------3---|------1---------|
G ---4-----------4-----|-------2----2--|----4----------4---|-------------2--|
D ---2-----------------|-------3----3--|----2--------------|-------------3--|
A ---------------------|---------------|-------------------|-------------3--|
E ---------------------|---------------|-------------------|----------------|       

BAJO
G 5-5--5--5------------|-4-4---2--4-2--|-5-5-5-------------|-4--4--2--4-2---|
D ------------------3--|--------3----3-|-----------------3-|--------3-----3-|
A ---------------------|---------------|-------------------|----------------|
E ---------------------|---------------|-------------------|----------------|


                                     ============
                                     = PARTE B2 =
                                     ============
ACORDES
   MIm7            FA             REm7              DO
                    
VOCAL
    todo-esme jor    que que dar       sea    mi    rar
E ---0-0---3-----|---------------|------------0---|------------|-------------|
B ------------2--|-----1------3--|-----1----------|-1----------|-------------|
G ---------------|-------2-------|----------------|------------|-------------|

GUITARRA
E ---------------|---------------|----------------|------------|-------------|
B ---------------|---------------|----------------|------------|-------------|
G --4-------4----|---2-----------|---2--------2---|---4----4---|---4----4----|
D --2-------2----|---3-----3-----|---3--------3---|---2----2---|---2----2----|
A ---------------|---------3-----|----------------|------------|-------------|
E ---------------|---------------|----------------|------------|-------------|       

BAJO
G 5-5--5--5------|-7---7-7-------|-4---4-4--------|-2--2-2-----|-2--2-2------|
D ---------------|---------------|------------2---|----------4-|-----------4-|
A ---------------|---------------|----------------|------------|-------------|
E ---------------|---------------|----------------|------------|-------------|


                                     ============
                                     = PARTE B3 =
                                     ============
ACORDES
   MIm7                  REm7             MIm7              REm7

VOCAL
       I  re  mos  jun       tos            ha ciaelin  fier    no
E -----0--0---3--------|---------------|-----0--0---3----5-|----------------|
B ------------------2--|-----3---------|-------------------|----3-----------|
G ---------------------|---------------|-------------------|----------------|

GUITARRA
E ---------------------|---------------|-------------------|------1---------|
B ---------------------|---------------|---------------3---|------1---------|
G ---4-----------4-----|-------2----2--|----4----------4---|-------------2--|
D ---2-----------2-----|-------3----3--|----2--------------|-------------3--|
A ---------------------|---------------|-------------------|-------------3--|
E ---------------------|---------------|-------------------|----------------|       

BAJO
G 5-5--5--5------------|-4-4---2--4-2--|-5-5-5-------------|-4--4--2--4-2---|
D ------------------3--|--------3----3-|-----------------3-|--------3-----3-|
A ---------------------|---------------|-------------------|----------------|
E ---------------------|---------------|-------------------|----------------|


                                     ============
                                     = PARTE B4 =
                                     ============
ACORDES
   MIm7            FA              REm7             DO
                    
VOCAL
   siesqueuna ba       lase  cru       zaal   pa    sar
E ---0-0---3-----|---------------|------------0---|------------|-------------|
B ------------2--|-----1------3--|-----1----------|-1----------|-------------|
G ---------------|-------2-------|----------------|------------|-------------|

GUITARRA
E ---------------|---------------|----------------|------------|-------------|
B ---------------|---------------|----------------|------------|-------------|
G --4-------4----|---2-----------|---2--------2---|---4----4---|---4----4----|
D --2-------2----|---3-----3-----|---3--------3---|---2----2---|---2----2----|
A ---------------|---------3-----|----------------|------------|---3----3----|
E ---------------|---------------|----------------|------------|-------------|       

BAJO
G 5-5--5--5------|-7---7-7----7--|-4---4-4--------|-2--2-2-----|-2--2-2-2----|
D ---------------|---------------|------------2---|----------4-|-------------|
A ---------------|---------------|----------------|------------|-------------|
E ---------------|---------------|----------------|------------|-------------|


                                     ============
                                     = PARTE C =
                                     ============
ACORDES
   DO             FAm       FA     REm       SOL11   DO
                    
VOCAL
             que    ba  la se cru      zaal   pa    sar
E ---------------|---------------|------------0---|------------|-------------|
B ------------1--|--3---1-----3--|-----1----------|-1----------|-------------|
G ---------------|---------2-----|----------------|------------|-------------|

GUITARRA
E ---------------|---------------|----------------|------------|-------------|
B ---------------|---------------|----------------|------------|-------------|
G --4-------4----|---1-----------|---2--------2---|---4----4---|---4----4----|
D --2-------2----|---3-----3-----|---3--------3---|---2----2---|---2----2----|
A --3------------|---------3-----|----------------|------------|---3----3----|
E ---------------|---------------|----------------|------------|-------------|       

BAJO
G 2-2--2----2----|-7---7---7-----|-4---4----------|-2--2-2-----|-2--2-2--2---|
D ---------------|---------------|------------2---|----------4-|-------------|
A ---------------|---------------|----------------|------------|-------------|
E ---------------|---------------|----------------|------------|-------------|


                                     ============
                                     = PARTE D =
                                     ============

                                ACORDES
                             SOL11  MIm      DO
                    
                                VOCAL
                              A     fri      ca.                
                        E -----------0---|---------------|
                        B ---------------|---1-----------|
                        G ----0----------|---------------|

                               GUITARRA
                        E ---------------|---------------|
                        B ---------------|---------------|
                        G ---------------|---------------|
                        D --3------5-----|---5-----------|
                        A --3------7-----|---7-----------|
                        E --5------------|---------------|       

                                BAJO
                        G ---------4-----|---2-----------|
                        D --2------------|---------------|
                        A ---------------|---------------|
                        E ---------------|---------------|


 Secuencia de la Canci¢n:


 INTRO 2 VECES

 PARTE A1 VOCAL 1
 PARTE A2 VOCAL 2
 PARTE A3 VOCAL 3

 PARTE B1
 PARTE B2
 PARTE B3
 PARTE B4

 INTRO 2 VECES

 PARTE A1 VOCAL 2
 PARTE A2 VOCAL 2
 PARTE A3 VOCAL 2

 PARTE B1
 PARTE B2
 PARTE B3
 PARTE B4

 AQUI VIENE UN PUNTEO CREO QUE CON FA# PENTATONICA MENOR

 INTRO 2 VECES

 PARTE A1 VOCAL 3
 PARTE A2 VOCAL 3
 PARTE A3 VOCAL 3

 PARTE B1
 PARTE B2
 PARTE B3
 PARTE B4

 PARTE C
 PARTE D


COMENTARIOS: ESPERO QUE OS SUENE BIEN, ES POSIBLE QUE HAYA
COMETIDO ALGUN ERROR AL HACER EL TABULADO.
ES EL PRIMERO QUE HAGO.
SI TENEIS ALGO QUE NO SUENE
O SABEIS EL PUNTEO O CUALQUIER OTRA COSA QUE SE OS
OCURRA ESTOY EN:
                   santan@

SI OS GUSTA EL KARAOKE O EL MIDI.
TENGO UNA MODESTA PAGINA EN INTERNET DONDE
PRINCIPALMENTE TENGO MUSICA ROCK DE GRUPOS ESPA¥OLES.
ESTA ESTA ENTRE ELLAS.
LA DIRECCION ES:
                
Suggest correction
Give kudos to tab author, rate the tab!
1 2 3 4 5
comments
print report bad tab
guest
Wanna post a correction for this tab? Suggest correction