Oops, an error
Loading. Please wait.

Africa Paga Tab

version 2
version 2

Whole song

48 views 1 this week
no commentswrite comment
1 2 3 4 5
3 more votes to show rating
add to favorites
launch autoscroll
font size
0
reset
how to read this tab
guitar tuner
×
Best way to learn
"Africa Paga"
Autoscroll
slow
fast
+/-
esc
set tempo
stop
Tabulado por: Oscar Louro
Correciones y sugerencias: Lour@


Transcribo la forma en la que toco la canción,
que creo se aproxima mucho a la  del disco 
'Agotados de esperar el fin'; conviene oirlo
para coger el ritmo con el que se emplean los acordes.

                                   
 Intro:
 ======

          
e ---------------------------------------------|
B -8/10--10-(x)---11----10----8-(x)-8--(x)-(x)-|
G -8/10- 10-(x)---10----10----8-(x)-8--(x)-(x)-|
D -8/10----------------------(8)---(8)---------|
A ---------------------------------------------|
E ---------------------------------------------|


e ---------------------------------------------|      
B -8/10--10-(x)---11----10---------------------|
G -8/10- 10-(x)---10----10--11-(x)--10-(x)-(x)-|
D -8/10---------------------10-(x)---9-(x)-(x)-|
A ---------------------------------------------|
E ---------------------------------------------| 

/  slide ascendente
[x]  notas sordas

Para el ritmo lo mejor es oir el disco, aunque no es excesivamente complicado.

                                     
Acordes de la canción:
======================
    
  DOMFAM(8)  LAm(5)     Mim(7)   FaM(8)    REREm0)   MMIm(12)
e --8----  ---5----  ---7----  ---8----  --10----  --12----
B --8----  ---5----  ---8----  --10----  --10----  --12----
G --9----  ---5----  ---9----  --10----  --10----  --12----
D -10----  ---7----  ---9----  --10----  --12----  --14----
A -10----  ---7----  ---7----  ---8----  --12----  --14----
E --8----  ---5----  --------  --------  --10----  --12----       


Con estos acordes se toca practicamente toda la canción. 
He puesto la posición entera de los acordes, pero si escuchas
 la canción la mayoria de las veces solo se tocan las 4 ultimas notas.


Secuencia:
==========


Intro (2 veces)

DLAm8)         Lam(5) DOM(8)          MIm(7)
     Busque un acorde        perdí mi banda
DLAm8)            Lam(5) DOM(8)     MIm(7)
     El champagne seco       fue mi desgracía
FAMMIm         REm(10)               Mim(12)<----(arpegiado 2 veces)
     Cualquier decisión      es un suicidio aquí
   
(Rem//Mim(12) ----> hacer un slide ascendente de una acorde a otro.)


RREm/MIm(12)      Rem(10)
          Iremos juntos
RREm/MIm(12)      Rem(10)
          Dispararemos
REmMImIm(12)       FAM(8)(Arp)          Mim(7)-DOM(8)
          Todo es mejor que quedarse a mirar


RREm/MIm(12)     Rem(10)    
          Iremos juntos
RREm/MIm(12)       Rem(10)          
          Hasta el infierno
REmMImIm(12)       FAM(8)(Arp)           Mim(7)-DOM(8)
          si es que una bala se cruza al pasar


Intro (2 veces)

(a partir de aquí la canción sigue con los mismos acordes
y ritmo que la parte anterior)

       En la oficina         de alistamiento
         Africa paga           Africa espera
         tienes un hombre más  que matará por tí       

         Iremos juntos
         Dispararemos
         Todo es mejor que qudarse a mirar

         Iremos juntos 
         Hasta el infierno
         Si es que una bala se cruza al parar

Solo (abajo)

Intro (2 veces)

         En la oficina         de alistamiento
         un mercenario         garganta seca
         tienes un hombre más  que matará por tí       

         Iremos juntos
         Dispararemos
         Todo es mejor que qudarse a mirar

         Iremos juntos 
         Hasta el infierno
         Si es que una bala se cruza al parar 
         que bala se cruza al pasar

  MIm   SOL    Mim(7)  DOM(8)
         Am    fri-    ca


Solo
====

vib.- vibrato
p.- pulling
h.- hammer
/ slide asc.
\ slide desc.
~ arpegiado y vibrato
b bending (medio tono)
B bending (tono entero) 


e -----------------------------------------------------------------------------
B ---------------15--15/17~-----------12--12~------12p10-----------------------
G ------12(b)-------------------------------------------------12p9---12--12~---
D ---14------------------------------------------------------------------------
A -----------------------------------------------------------------------------
E -----------------------------------------------------------------------------      


e --15-------------------------------------------------------------------------
B -----12----------------------------12----------------------------------------
G ---------12-(12)-12---------12h14------14~----12--------------------------12-
D ---------------------12h14-----------------15----12-12b-12~--------12--14----
A -------------------------------------------------------------12p15-----------
E -----------------------------------------------------------------------------       


e -----------------------------------------------------------------------------
B -----------------------------------------------------------------------------
G ---14 14b-14b 12----------12-----12-----12-----12-----12-14-14-14b-14B 12----
D ---------------------12h14 -12h14--12h14--12h14--12h14-----------------------
A -----------------------------------------------------------------------------
E -----------------------------------------------------------------------------  


e -----------------------------------------------------------------------------
B -15-17b~---------------17-17b~-----------------------------------------------
G -------------12 12b~--------------------12-----------------------------------
D -------------------------------------15------12--12~-------------12--12~-----
A -----------------------------------------------------------12h15-------------
E -------------------------------------------------------15--------------------

   

e ---------------------------------------|
B ---------------------------------------|
G ---------------12---12----12~----12~---|
D -----12----14-------14----14~----14~---|
A --15----15-----------------------------|
E ---------------------------------------|   


Es la primera vez que hago un tabulado y seguro que he metido
la pata en alguna parte; si algo no os suena bien podeis poneros
en contacto conmigo en:

   lour@
     
Oscar Louro.
Suggest correction
Give kudos to tab author, rate the tab!
1 2 3 4 5
comments
print report bad tab
guest
You may want to rate the tab now too:
select rating
Wanna post a correction for this tab? Suggest correction