Oops, an error
Loading. Please wait.

Bestia Bestia Bass

145 views 3 this week
no commentswrite comment
1 2 3 4 5
3 more votes to show rating
add to favorites
×
Save as Personal and add changes to this tab that will be seen only by you. Learn more ›
×
You can save this tab as Personal to edit and correct it or add notes. All changes will be seen only by you. Learn more »
save as personal
new!
launch autoscroll
font size
0
reset
guitar tuner
Autoscroll
slow
fast
+/-
esc
set tempo
stop
A
2B
C
2B
D

.

A)
----------------------------------
----------------------------------
----------------------------------
--0--------0--0----0--------0--0--

B)
--------------------------------------------------
--------------------------------------------------
--------------------------------------------------
--0--3--0--3--0--3--0--3--0--3--0--3--0--3--0--3--
sigue
--------------------------------------------------
--------------------------------------------------
--0--3--0--3--0--3--0--3--------------------------
--------------------------0--3--0--3--0--3--0--3--
sigue
-----------------------------
-----------------------------
--2--5--2--5--2--5--2--5--0--
-----------------------------

C)
--------------------------------------------------
--------------------------------------------------
--------------------------------------------------
--0--3--0--3--0--3--0--3--0--3--0--3--0--3--0--3--
sigue
--------------------------------------------------
--------------------------------------------------
--0--3--0--3--0--3--0--3--------------------------
--------------------------0--3--0--3--0--3--0--3>>**
sigue
----------------------------------------
----------------------------------------
-----5-----5-----5-----5----------------
>>7-----7-----7-----7-----5>>>>15>>>>1--*
*Lo marcado como 5>>>>15>>>>1 corresponde al final del solo de guitarra,
y es un pull-on/pull-off (o arrastrado, o como se diga)
que hace el bajo y que coincide con el golpe de caja que da paso
a la siguiente estrofa. Si esta idea no te gusta,
lo dejas como la parte B y te tocas la polla o te inventas tú algo.
**Entre la segunda y tercera parte de C pone que arrastres
del traste 3 al 7, pero es incorrecto: tienes que arrastar
del 3 al 5 para poder pulsar a continuación el 7
(con el dedo índice arrastras del traste 3 al 5,
y con el anular pulsas el traste 7 -el traste 6 no suena
en ningún momento; no me seas chapuzas).

D)
----------
----------
----------
--0----0--

COMENTARIOS y DEMÁS: guillermo_ddd@
Suggest correction
Give kudos to tab author, rate the tab!
1 2 3 4 5
comments
print report bad tab
guest
Wanna post a correction for this tab? Suggest correction