Oops, an error
Loading. Please wait.

Caperucita Roja Tab

43 views 1 this week
no commentswrite comment
1 2 3 4 5
3 more votes to show rating
add to favorites
×
Save as Personal and add changes to this tab that will be seen only by you. Learn more ›
×
You can save this tab as Personal to edit and correct it or add notes. All changes will be seen only by you. Learn more »
save as personal
new!
launch autoscroll
font size
0
reset
how to read this tab
guitar tuner
Autoscroll
slow
fast
+/-
esc
set tempo
stop
Cadd9= Ver al final

INTRO (De Bajo)
e|-----------|-----|-------|-----|------|-----|------|--------|
B|-----------|-----|-------|-----|------|-----|------|--------|
G|-----------|-----|-------|-----|------|-----|------|--------|
D|-----------|-----|-------|-----|------|-----|------|--------|
A|------5----|-----|----3--|-----|------|-----|----3-|--------|
E|--7-----5--|-----|-5-----|-----|-7----|-----|-5----|--------|

               Nh.            Nh.          Nh.           Nh.
e|-----------|--12-|-------|-----|------|--12-|------|-------|
B|-----------|--12-|-------|--12-|------|--12-|------|----12-|
G|-----------|-----|-------|--12-|------|-----|------|----12-|
D|-----------|-----|-------|-----|------|-----|------|-------|
A|-----------|-----|-------|-----|------|-----|------|-------|
E|-----------|-----|-------|-----|------|-----|------|-------|

   Am                        Cadd9                             -
e|-----0--------------------------3-------------------|      |
B|------1--------------------------3------------------|      |
G|--2--------------------------0----------------------|      |=  2 veces
D|-2-2-----------------------2--2---------------------|      |
A|----------------------------------------------------|      |
E|----------------------------------------------------|      |
                                                           -
ESTROFAS: (Las notas 7 y 5 son hechas por el bajo,
           pero a veces, también hace la guitarra)

e|----------------------------------------------------|
B|----------------------------------------------------|
G|----------------------------------------------------|
D|-----9/7^7-7--------7/5^5-5-------------------------|
A|-----7/5^5-5--------5/3^3-3-------------------------|
E|--7--------------5----------------------------------|

CORO:

Am, Cadd9


SOLO: (Discúlpenme si esta desordenado) 
      <La primera parte esta hecha varias veces con la
       palanca>

e|-8s10~~~-10^10^10^10~~-------|------8-11~~~-12-9^8-----|
B|-----------------------------|-8h9---------------------|
G|-----------------------------|-------------------------|
D|-----------------------------|-------------------------|
A|-----------------------------|-------------------------|
E|-----------------------------|-------------------------|

e|--12s14~~12-------------------------------------|
B|---------------10^10^10^8^8^8^6^6^6^5-----------|
G|------------------------------------------------|
D|------------------------------------------------|
A|------------------------------------------------|
E|------------------------------------------------|

e|-------------------------------------------------|
B|--------12-14-15--17-15--------------------------|
G|-12-14-------------------------------------------|
D|-------------------------------------------------|
A|-------------------------------------------------|
E|-------------------------------------------------|


CORO: Los Acordes van arpegiados
     Am                               Cadd9
e|----0-----------------------------3--------------|
B|----1-----------------------------3--------------|
G|----2-----------------------------0--------------|
D|----2-----------------------------1--------------|
A|----0-----------------------------2--------------|
E|----x-----------------------------0--------------|

          Em
Acercate mas

x  = cuerda sin sonido (apagada o que no se toca en acordes)
Nh = Armónico natural
s  = slide [deslizar]
~  = vibrato [vibrar]
^  = tocar enseguida de la otra nota anterior
h  = hammer
Suggest correction
Give kudos to tab author, rate the tab!
1 2 3 4 5
comments
print report bad tab
guest
Wanna post a correction for this tab? Suggest correction