Oops, an error
Loading. Please wait.

Caramelos Podridos Tab

278 views 6 this week
no commentswrite comment
1 2 3 4 5
3 more votes to show rating
add to favorites
launch autoscroll
font size
0
reset
how to read this tab
guitar tuner
×
Best way to learn
"Caramelos Podridos"
Autoscroll
slow
fast
+/-
esc
set tempo
stop
Los Ilegales
Caramelos Podridos 
Jorge Martinez
DIRECTO (86)    

e|-----------------------------
B|-9-10---9-10-----------------
G|-9-9----9-9------------------
D|-9-9----9-9------------------
A|-----------------------------
E|-----------------------------


E                                
Me siento salvaje  en el discobar
E                         
Se acelera mi ritmo vital

e|--------------------------------------------------------
B|--------------------------------------------------------
G|--------------------------------------------------------
D|------------------------------------------------5^5-----
A|---------------------------------7^7-7^5^5-5^7------5---
E|--------------------------------------------------------

A                                 
Mujeres peligrosas  llegan a ligar

e|--------------------------------------------------------
B|--------------------------------------------------------
G|--------------------------------------------------------
D|-----------------------------------------------3^3------
A|---------------------------------5^5-5^3^3-3^5-----3----
E|--------------------------------------------------------

B7
Sábado lleno de chicas pegajosas
Como caramelos podridos

CORO:

E           D      G          A
Soy un borracho   Soy un borracho
E           D      G          A
Soy un borracho   Soy un borracho
Suggest correction
Give kudos to tab author, rate the tab!
1 2 3 4 5
comments
print report bad tab
guest
You may want to rate the tab now too:
select rating
Wanna post a correction for this tab? Suggest correction