Oops, an error
Loading. Please wait.

Cuanta Belleza Chords

44 views 1 this week
no commentswrite comment
1 2 3 4 5
3 more votes to show rating
add to favorites
launch autoscroll
font size
0
reset
transpose
0
reset
display chords
guitar tuner
×
Best way to learn
"Cuanta Belleza"
Autoscroll
slow
fast
+/-
esc
set tempo
stop
El INTRO es la escala basica del blues, 
los acordes Bm y D son rasgueados muy despacio y suave,
y después de rasguear presionas un poco la palanca de 
tu guitarra.
La b quiere decir que presiones la palanca (un poco)
NOTA: Si les suena mal el 5 en la cuerda D,
pueden probar el traste 6 ó 7.

                    Bm  B                      D   B
e|-----------------|---7-|---------------------|---5-|
B|-----------------|--7--|---------------------|--7--|
G|-----------------|-7---|---------------------|-7---|
D|------5----------|-----|------5-------8-7-5b-|-----|
A|-----5--7-6-5----|-----|-----5--7-6-5--------|-----|
E|-5-8----------8b-|-----|-5-8-----------------|-----|


ESTROFAS
       Bm          D          Bm             D
A lo largo de tu vida que tampoco ha sido larga
       Bm            D       Bm  (Bm-D)
nunca has sabido decir, si o no,
        D            Bm             D          Bm
aunque sea sorprendente nunca has sido sorprendida
       D          Bm             D       Bm
y sonríes tontamente con tu sonrisa de niña.

ESTRIBILLO:

 G~~~~~~~~~~~~~~  A~~~~~~~~~~~~~~
¡Cuánta belleza!, que poca cabeza
 G~~~~~~~~~~~~~~  A~~~~~~~~~~~~~~
¡cuánta belleza!, que poca cabeza,
 G~~~~~~~~~~~~~  AAAAA
¡cuánta belleza!.

INTRO.

ESTROFA.

Desde la esquina hasta casa desde casa hasta la
esquina, tus pequeñas naricitas, revientan de cocaína,
tus ojitos estrellitos, y tu cara al cielo jóven,
y todo inteligente simplemente te fastidia.

ESTROFA.

A lo largo de tu vida que tampoco ha sido vida, 
nunca has sabido decir,  si o no, lo mejor de ti 
no es bueno, lo peor de ti no es malo, 
y lo más interesante es que eres decorativa.

ESTRIBILLO.

INTRO.

Y al final es así.
                       D B
e|--------|--------|---5----|
B|--------|--------|--7-----|
G|-8-7-5b-|--------|-7------|
D|--------|--------|--------|
A|--------|-8-7-5b-|--------|
E|--------|--------|--------|

Y LOS ILEGALES vuelven al Ecuador!
Suggest correction
Give kudos to tab author, rate the tab!
1 2 3 4 5
comments
print report bad tab
guest
You may want to rate the tab now too:
select rating
Wanna post a correction for this tab? Suggest correction