Oops, an error
Loading. Please wait.

El Mamoncete Tab

version 1
version 1

Whole song

Interactive

127 views 1 this week
no commentswrite comment
1 2 3 4 5
3 more votes to show rating
add to favorites
×
Save as Personal and add changes to this tab that will be seen only by you. Learn more ›
×
You can save this tab as Personal to edit and correct it or add notes. All changes will be seen only by you. Learn more »
save as personal
new!
launch autoscroll
font size
0
reset
how to read this tab
guitar tuner
Autoscroll
slow
fast
+/-
esc
set tempo
stop
El rasgado se interpreta así

- = Para abajo | = Para arriba

Riff 1
e|--------------------------|---------------10----|
B|-7h8-7---7-8-10--10s12-10-|-7h8-7--7-8-10----12-|
G|-------7------------------|-------7-------------|
D|--------------------------|---------------------|
A|--------------------------|---------------------|
E|--------------------------|---------------------|

Se repite eso algunas veces y este es el final después
de tocar esto viene el final de la cancion.

Riff 2
e|-----------------|
B|-16-18-----------|
G|-----------------|
D|-----------------|
A|-----------------|
E|-----------------|

La introduccion es :

G - Bm - C - D

   - | | |  | | |  | | |  | | |
e|---3-3-3--2-2-2--3-3-3--2-2-2--| X 2 veces 
B|---5-5-5--3-3-3--5-5-5--3-3-3--| (en la segunda vez entra el bajo)
G|---5-5-5--4-4-4--5-5-5--2-2-2--|
D|-------------------------------|
A|-------------------------------|
E|-3-----------------------------|

Estrofas : 

Em - D

   | -  | |    | -  | | 
e|-7-7--7-7--|-5-5--5-5---|
B|-8-8--8-8--|-7-7--7-7---|
G|-9-9--9-9--|-7-7--7-7---|
D|-----------|------------|
A|-----------|------------|
E|-----------|------------|


ESTRIBILLO:

G - Bm - C - D

   - | | |  | | |  | | |  | | |
e|---3-3-3--2-2-2--3-3-3--2-2-2--|  
B|---5-5-5--3-3-3--5-5-5--3-3-3--| 
G|---5-5-5--4-4-4--5-5-5--2-2-2--|
D|-------------------------------|
A|-------------------------------|
E|-3-----------------------------|

Introduccion
Riff 1
Estrofa
Estribillo
Riff1
Estrofa
Estribillo
Riff1
Estrofa
Estribillo
Riff 1 & Riff 2


Creo que este TAB mande ya después 
de haberme sacado toda la basura de mis orejas.
Suggest correction
Give kudos to tab author, rate the tab!
1 2 3 4 5
comments
print report bad tab
guest
Wanna post a correction for this tab? Suggest correction