Oops, an error
Loading. Please wait.

El Piloto Chords

100 views 1 this week
no commentswrite comment
1 2 3 4 5
3 more votes to show rating
add to favorites
launch autoscroll
font size
0
reset
transpose
0
reset
display chords
guitar tuner
Autoscroll
slow
fast
+/-
esc
set tempo
stop
Help us to improve Ultimate-Guitar.com Take our survey!
×
(el riff está en Gsol)(este riff X2)
escuchándola le cogerás el ritmo a la melodía
riff:
G:/-------------------------------------------------------77-/
D:/-5^--9^--9-7-5-7-4^----------5^-5^-9^------------4-5^--77-/
A:/---------------------7-5^--------------5-7-5-7-5-------55-/
E:/----------------------------------------------------------/

       G
Nueva York, París, 1927
     Em
seis mil kilómetros vuelo de prueba.
     G
Despegó de New York, despareció en la niebla,
  Em
un avión vuela sobre Manhattan.
 G
En el aire hay una brisa fastidiosa,
  Em
dentro del avión no hay paracaídas.
 C
Suerte Mister Lindbergh no hay paracaídas,
 F
suerte Mister Lindbergh no hay paracaídas...

(riff)

    G
Veintisiete horas de vuelo sobre el mar,
 Em
fácil perderse en el atlántico.
  G
Ahora vuela vuela a vida o muerte
 Em
un avión con un solo motor.
  G
Irlanda, Inglaterra, el canal de la mancha,
 Em
no hay que pensar en pilotos muertos.
 C
Suerte Mister Lindbergh no hay paracaídas,
 F
suerte Mister Lindbergh no hay paracaídas...

(riff)
G
Desde lejos luces en parís,
Em
en el aeropuerto buen recibimiento.
G
Lo has conseguido brindemos con champagne,
Em
toda esa pasta, toda esa fama.
  G
Abajo en el atlántico los pilotos muertos,
 Em
no hay que pensar en pilotos muertos.
C
Suerte Mister Lindbergh no hay paracaídas,
F
suerte Mister Lindbergh no hay paracaídas...
e:/-----------------------------------------------------------x--/
B:/-----------------------------------------------------------2--/
G:/-------------------------------------------------------77--2--/
D:/-5^--9^--9-7-5-7-4^----------5^-5^-9^------------4-5^--77--3--/
A:/---------------------7-5^--------------5-7-5-7-5-------55--2--/
E:/-----------------------------------------------------------0--/

Acordes:
      C     Em  F    G
1°.  [8]   [7] [1]  [3]
2°.  [8]   [8] [1]  [3]
3°.  [9]   [9] [2]  [4]
4°.  [10]  [9] [3]  [5]
5°.  [10]  [7] [3]  [5]
6°.  [8]   [x] [1]  [3]

bueno, espero que les guste. algún comentario,
sugerencia o petición de alguna canción
de Los Ilegales, me escriben al correo:
andres_8@ .
Saludos de Medellín, Colombia.
Casa por excelencia de  Los Ilegales.
Suggest correction
Give kudos to tab author, rate the tab!
1 2 3 4 5
comments
print report bad tab
guest
You may want to rate the tab now too:
select rating
Wanna post a correction for this tab? Suggest correction