Oops, an error
Loading. Please wait.

Eres Una Puta Bass Tab

177 views 3 this week
no commentswrite comment
1 2 3 4 5
3 more votes to show rating
add to favorites
launch autoscroll
font size
0
reset
guitar tuner
Autoscroll
slow
fast
+/-
esc
set tempo
stop
Help us to improve Ultimate-Guitar.com Take our survey!
×
El bajo de
"Eres una puta" de los Ilegales
es muy sencillo.
Son sólo tres líneas
(sin contar arrastrados y tal).

Ahí va:

Mi)
---------------------
----------7----------
---7--10-----10--7---
---------------------

La)
----------7----------
---7--10-----10--7---
---------------------
---------------------

Si)
----------9----------
---9--12-----12--9---
---------------------
---------------------

...Y la secuencia era:

4 Mi, 4 La, 2 Mi, Si, La.
Suggest correction
Give kudos to tab author, rate the tab!
1 2 3 4 5
comments
print report bad tab
guest
You may want to rate the tab now too:
select rating
Wanna post a correction for this tab? Suggest correction